» » »

Only Difference Between Martyrdom And Suicide Is Press Coverage Tabs (ver.1)

Artists:  A B C D E F G H I J K L M N O P Q R S T U V W X Y Z # 

Only Difference Between Martyrdom And Suicide Is Press Coverage Tabs (ver.1)

Panic At The Disco
Rating:
0/5 (0 votes)

Tabs too difficult? Try these video lessons and learn fast.
                Tuning: Drop d

Intro:
e|--------------------------------------------|
B|---------5-5--7-7--7-5-5-------------7-7-7--|
G|--6-6--6-6-6--6-6--6-6-6--1-1-1-1-1--6-6-6--|
D|--4-4--4-4-4--7-7--7-7-7--2-2-2-2-2--7-7-7--|
A|--4-4--4-4-4--5-5--5-5-5--2-2-2-2-2--5-5-5--|
d|--4-4--4-4-4--------------2-2-2-2-2---------|

Verse:
e|--------------------------------------------|----|
B|--------------------------------------------|----|
G|--------------7-7--7-7-7-------------7-7-7--|----|
D|--4-4--4-4-4--7-7--7-7-7--2-2-2-2-2--7-7-7--|-2~-|
A|--4-4--4-4-4--5-5--5-5-5--2-2-2-2-2--5-5-5--|-2~-|
d|--4-4--4-4-4--------------2-2-2-2-2---------|-2~-|

Chorus:
e|-------------------------------------------------------------------|
B|-------------------------------------------------------------------|
G|--4-4-4-4-4--6-6-6-6-6--2-2-2-2-2--2-2-------2-2-2-2-2--4-4-4-4-4--|
D|--2-2-2-2-2--4-4-4-4-4--0-0-0-0-0--2-2--2-2--0-0-0-0-0--2-2-2-2-2--|
A|--2-2-2-2-2--4-4-4-4-4--0-0-0-0-0--0-0--2-2--0-0-0-0-0--2-2-2-2-2--|
d|--2-2-2-2-2--4-4-4-4-4--0-0-0-0-0-------2-2--0-0-0-0-0--2-2-2-2-2--|

e|------------------------------|------------|
B|------------------------------|------------|
G|------------------------------|------------|
D|--2/4-4--2/4-4--2/4-4--2/4-4--|-2-2-2-2-2--|
A|--2/4-4--2/4-4--2/4-4--2/4-4--|-2-2-2-2-2--|
d|--2/4-4--2/4-4--2/4-4--2/4-4--|-2-2-2-2-2--|
				          x x x x x 
	    1st part		     2nd part

Bridge: (Synth Bit)
e|------------|--------------------------------------|
B|---------2--|--------------------------------------|
G|---2--2/4---|--------------------------------------|
D|-4--4-----4-|-4-4-4-4-4-4-4--0-0-0-0-0--2-2-2-2-2--|
A|------------|-4-4-4-4-4-4-4--0-0-0-0-0--2-2-2-2-2--|
d|------------|-4-4-4-4-4-4-4--0-0-0-0-0--2-2-2-2-2--|
                x x x x x x x  x x x x x  x x x x x

Outro:
e|-----------------------------------------------------------|
B|-----------------------------------------------------------|
G|-----------------------------------------------------------|
D|--4~~~~////--4~~~~////--0-0-0-0--4~~~~////--4~~~~////--0~--|
A|--4~~~~////--4~~~~////--0-0-0-0--4~~~~////--4~~~~////--0~--|
d|--4~~~~////--4~~~~////--0-0-0-0--4~~~~////--4~~~~////--0~--|
                          x x x x
            
Tabs too difficult? Try these video lessons and learn fast.




comments powered by Disqus
↑ Back to top | Tablatures and chords are parodies/interpretations of the original songs. You may use it for private study, scholarship, research or language learning purposes only