» » »

Panic At The Disco, That Green Gentleman Tabs (ver.1)

Artists:  A B C D E F G H I J K L M N O P Q R S T U V W X Y Z # 

That Green Gentleman Tabs (ver.1)

Panic At The Disco Tabs
Rating:
0/5 (0 votes)
That Green Gentleman lessons Tabs too difficult? Try these video lessons and learn fast
                #------------------------------------------------------------------------------##

03.23.08

TUNING: (D G C F A D)


------------------------------------------

Chord Diagrams:

  C  F Am  G Em Dsus2 G# Bb  Cadd9/B
|-0--1--0--3--0---0----4--6-----0----|
|-1--1--1--3--0---3----4--6-----1----|
|-0--2--2--0--0---2----5--7-----0----|
|-2--3--2--0--2---0----6--8-----0----|
|-3--x--0--2--2---x----6--8-----2----|
|-x--x--x--3--0---x----4--6-----x----|

-------------------------------------------




C                                  F
Things are shaping up to be pretty odd.
C                        F
Little deaths in musical beds.
Am              G                  F
So it seems I'm someone I've never met.


C                                F
You will only hear these elegant crimes,
C                               F
Fall on your ears from criminal dimes.
Am           G                   F
They spill unfound from a pretty mouth.



Em
Everybody gets there and everybody gets their,
Dsus2
And Everybody gets their way


C / F / C / F


Am
I never said I missed her when everybody kissed her,
Dsus2
Now I'm the only one to blame.


C / F / G# / Bb

.................................................
                           C    Em     F
Things have changed for me, and that's okay.
           Dsus2           G
I feel the same, I'm on my way, and I say.
C           Cadd9/B     Am
Things have changed for me, and that's okay.
.................................................


C                           F
I want to go where everyone goes,
C                            F
I want to know what everyone knows
Am                 G                   F
I want to go where everyone feels the same


C                          F
I never said I'd leave the city,
C                           F
I never said I'd leave this town.
Am               G            F
A falling out we won't tiptoe about.





Leads:

  S E S E S E S E S
|----------------------|
|---8---8---8---8------|
|-9---9---9---9---9~----|
|----------------------|
|----------------------|
|----------------------|


  S S S S S S S S  S S S S S
|--------------------------------|
|-----8-----5--------------5-----|
|---5---5-7---7-5------5h7-------|
|-5----------------5h7-----------|
|--------------------------------|
|--------------------------------|


  S S S S S S S S   S S S S  S S S S S
|----------------------------------------|
|-----8-----5----------------------------|
|---5---5-7---7-5-------5-7--8-8-8-5-----|
|-5-----------------6-8--------------6~--|
|----------------------------------------|
|----------------------------------------|







#------------------------------------------------------------------------------##
            
Submit corrections

comments powered by Disqus
↑ Back to top | Panic At The Disco Tabs for That Green Gentleman. Lyrics for acoustic guitar and electric guitar. Tablatures and chords are parodies/interpretations of the original songs. You may use it for private study, scholarship, research or language learning purposes only