» » »

Panic At The Disco, Shes A Handsome Woman Tabs (ver.1)

Artists:  A B C D E F G H I J K L M N O P Q R S T U V W X Y Z # 

Shes A Handsome Woman Tabs (ver.1)

Panic At The Disco Tabs
 Rating:
4/5 (4 votes)
Shes A Handsome Woman lessons Tabs too difficult? Try these video lessons and learn fast
1
                She's a Handsome Woman
Panic at the Disco
Pretty.Odd.

I couldnt find a perfect version of this tab, so I gave it my best shot!

Credit to Manovision for verse and chorus

TUNING: (D G C F A D)


Intro
D|-----------------------|
A|-------4-4~------------|
F|-4-----4-4~-4-4-4-4-4~-|
C|-4---4-3-3~-4-4-4-4-4~-|
G|-2-5--------5/4/3/2-2~-|
D|-----------------------|

Verse
D|-2-2--1-4~--4-4--0~------|
A|-2-2--2-4~--4-4----0~----|
F|-3-3--3-6~--6-5------0~--|
C|-4-4--3-6~--6-6--------2-|
G|------1-4~--4-6----------|
D|--------------4----------|

Pre-chorus/Solo
D|-------------------------------------------|
A|-4brp2---4-6brp4~-4p2-11////-4/6/4-22/4----|
F|------3~-------------2------------------3~-|
C|-------------------------------------------|
G|-------------------------------------------|
D|-------------------------------------------|


Chorus

G#
Go on
F#                C#sus2 
grab your hat and fetch a camera         
G#     F#               C#sus2
Go on, film the world before it happens

Intro
Verse
Intro
Verse
Solo
Chorus
Intro
Verse
Solo
Chorus
Intro
            
Submit corrections

comments powered by Disqus
↑ Back to top | Panic At The Disco Tabs for Shes A Handsome Woman. Lyrics for acoustic guitar and electric guitar. 1 Tablatures and chords are parodies/interpretations of the original songs. You may use it for private study, scholarship, research or language learning purposes only