» » »

Panic At The Disco, Only Difference Between Martyrdom And Suicide Is Press Coverage Tabs (ver.2)

Artists:  A B C D E F G H I J K L M N O P Q R S T U V W X Y Z # 

Only Difference Between Martyrdom And Suicide Is Press Coverage Tabs (ver.2)

Panic At The Disco Tabs
 Rating:
4/5 (4 votes)
Only Difference Between Martyrdom And Suicide Is Press Coverage lessons Tabs too difficult? Try these video lessons and learn fast
                The Only Difference Between Martyrdom and Suicide is Press Coverage
Panic! at the Disco

Notes:  This is more or less how I play it.  It's not identical to their version, but 
again, I play it solo acoustic.  Here's a video of me playing the song:

--2--2--x--2--2--2--x--5--|--5--5--x--5--5--5--x--0--|--0--0--x--0--0--0--x--5--|--5--5--x--5--5--5--x--2--|
--2--2--x--2--2--2--x--7--|--7--7--x--7--7--7--x--0--|--0--0--x--0--0--0--x--7--|--7--7--x--7--7--7--x--2--|
--2--2--x--2--2--2--x--6--|--6--6--x--6--6--6--x--1--|--1--1--x--1--1--1--x--6--|--6--6--x--6--6--6--x--2--|
--4--4--x--4--4--4--x--7--|--7--7--x--7--7--7--x--2--|--2--2--x--2--2--2--x--7--|--7--7--x--7--7--7--x--4--|
--4--4--x--4--4--4--x--5--|--5--5--x--5--5--5--x--2--|--2--2--x--2--2--2--x--5--|--5--5--x--5--5--5--x--4--|
--2--2--x--2--2--2--x-----|--------x-----------x--0--|--0--0--x--0--0--0--x-----|--------x-----------x--2--|

  1     2     3     4     |  1     2     3     4     |  1     2     3     4     |  1     
    3     4     |

--2--2--x--2--2--2--x--5--|--5--5--x--5--5--5--x--0--|--0--0--x--0--0--0--x--5--|--5--5--x--5--5--5--x--2--|
--2--2--x--2--2--2--x--7--|--7--7--x--7--7--7--x--0--|--0--0--x--0--0--0--x--7--|--7--7--x--7--7--7--x--2--|
--2--2--x--2--2--2--x--6--|--6--6--x--6--6--6--x--1--|--1--1--x--1--1--1--x--6--|--6--6--x--6--6--6--x--2--|
--4--4--x--4--4--4--x--7--|--7--7--x--7--7--7--x--2--|--2--2--x--2--2--2--x--7--|--7--7--x--7--7--7--x--4--|
--4--4--x--4--4--4--x--5--|--5--5--x--5--5--5--x--2--|--2--2--x--2--2--2--x--5--|--5--5--x--5--5--5--x--4--|
--2--2--x--2--2--2--x-----|--------x-----------x--0--|--0--0--x--0--0--0--x-----|--------x-----------x--2--|

  1     2     3     4     |  1     2     3     4     |  1     2     3     4     |  1     
    3     4     |

--2--2--x--2--2--2--x--5--|--5--5--x--5--5--5--x--0--|--0--0--x--0--0--0--x--5--|--5--5--x--5--5--5--x--2--|
--2--2--x--2--2--2--x--7--|--7--7--x--7--7--7--x--0--|--0--0--x--0--0--0--x--7--|--7--7--x--7--7--7--x--2--|
--2--2--x--2--2--2--x--6--|--6--6--x--6--6--6--x--1--|--1--1--x--1--1--1--x--6--|--6--6--x--6--6--6--x--2--|
--4--4--x--4--4--4--x--7--|--7--7--x--7--7--7--x--2--|--2--2--x--2--2--2--x--7--|--7--7--x--7--7--7--x--4--|
--4--4--x--4--4--4--x--5--|--5--5--x--5--5--5--x--2--|--2--2--x--2--2--2--x--5--|--5--5--x--5--5--5--x--4--|
--2--2--x--2--2--2--x-----|--------x-----------x--0--|--0--0--x--0--0--0--x-----|--------x-----------x--2--|

  1     2     3     4     |  1     2     3     4     |  1     2     3     4     |  1     
    3     4     |

--2--2--x--2--2--2--x--5--|--5--5--x--5--5--5--x--0--|--0--0--x--0--0--0--x--5--|--5--5--x--5--5--5--x--2--|
--2--2--x--2--2--2--x--7--|--7--7--x--7--7--7--x--0--|--0--0--x--0--0--0--x--7--|--7--7--x--7--7--7--x--2--|
--2--2--x--2--2--2--x--6--|--6--6--x--6--6--6--x--1--|--1--1--x--1--1--1--x--6--|--6--6--x--6--6--6--x--2--|
--4--4--x--4--4--4--x--7--|--7--7--x--7--7--7--x--2--|--2--2--x--2--2--2--x--7--|--7--7--x--7--7--7--x--4--|
--4--4--x--4--4--4--x--5--|--5--5--x--5--5--5--x--2--|--2--2--x--2--2--2--x--5--|--5--5--x--5--5--5--x--4--|
--2--2--x--2--2--2--x-----|--------x-----------x--0--|--0--0--x--0--0--0--x-----|--------x-----------x--2--|

  1     2     3     4     |  1     2     3     4     |  1     2     3     4     |  1     
    3     4     |

-----2--2--2--2--2--2--2--|--2--2--2--2--2--2--2--0--|-----0--0--0--0--0--0--2--|-----2--2--2--2--2--2--2--|
-----2--2--2--2--2--2--2--|--2--2--2--2--2--2--2--0--|-----0--0--0--0--0--0--2--|-----2--2--2--2--2--2--2--|
-----2--2--2--2--2--2--2--|--2--2--2--2--2--2--2--1--|-----1--1--1--1--1--1--2--|-----2--2--2--2--2--2--2--|
-----4--4--4--4--4--4--4--|--4--4--4--4--4--4--4--2--|-----2--2--2--2--2--2--4--|-----4--4--4--4--4--4--4--|
-----4--4--4--4--4--4--4--|--4--4--4--4--4--4--4--2--|-----2--2--2--2--2--2--4--|-----4--4--4--4--4--4--4--|
-----2--2--2--2--2--2--2--|--2--2--2--2--2--2--2--0--|-----0--0--0--0--0--0--2--|-----2--2--2--2--2--2--2--|

  1     2     3     4     |  1     2     3     4     |  1     2     3     4     |  1     
    3     4     |

--5-----5-----5--5--x--5--|-----5--x--0-----0--x--5--|-----5--5-----5--5--5--0--|-----0--0-----0--0--0--2--|
--7-----7-----7--7--x--5--|-----5--x--0-----0--x--7--|-----7--7-----7--7--7--0--|-----0--0-----0--0--0--2--|
--6-----6-----6--6--x--6--|-----6--x--1-----1--x--6--|-----6--6-----6--6--6--1--|-----1--1-----1--1--1--2--|
--7-----7-----7--7--x--7--|-----7--x--2-----2--x--7--|-----7--7-----7--7--7--2--|-----2--2-----2--2--2--4--|
--5-----5-----5--5--x--7--|-----7--x--2-----2--x--5--|-----5--5-----5--5--5--2--|-----2--2-----2--2--2--4--|
--------------------x--5--|-----5--x--0-----0--x-----|-----------------------0--|-----0--0-----0--0--0--2--|

  1     2     3     4     |  1     2     3     4     |  1     2     3     4     |  1     
    3     4     |

-----2--2--2--2--2--2--2--|--2--2--2--2--2--2--2--0--|-----0--0--0--0--0--0--2--|-----2--2--2--2--2--2--2--|
-----2--2--2--2--2--2--2--|--2--2--2--2--2--2--2--0--|-----0--0--0--0--0--0--2--|-----2--2--2--2--2--2--2--|
-----2--2--2--2--2--2--2--|--2--2--2--2--2--2--2--1--|-----1--1--1--1--1--1--2--|-----2--2--2--2--2--2--2--|
-----4--4--4--4--4--4--4--|--4--4--4--4--4--4--4--2--|-----2--2--2--2--2--2--4--|-----4--4--4--4--4--4--4--|
-----4--4--4--4--4--4--4--|--4--4--4--4--4--4--4--2--|-----2--2--2--2--2--2--4--|-----4--4--4--4--4--4--4--|
-----2--2--2--2--2--2--2--|--2--2--2--2--2--2--2--0--|-----0--0--0--0--0--0--2--|-----2--2--2--2--2--2--2--|

  1     2     3     4     |  1     2     3     4     |  1     2     3     4     |  1     
    3     4     |

--5-----5-----5--5--x--5--|-----5--x--0-----0--x--5--|-----5--5-----5--5--5--0--|-----0--0-----0--0--0--2--|
--7-----7-----7--7--x--5--|-----5--x--0-----0--x--7--|-----7--7-----7--7--7--0--|-----0--0-----0--0--0--2--|
--6-----6-----6--6--x--6--|-----6--x--1-----1--x--6--|-----6--6-----6--6--6--1--|-----1--1-----1--1--1--2--|
--7-----7-----7--7--x--7--|-----7--x--2-----2--x--7--|-----7--7-----7--7--7--2--|-----2--2-----2--2--2--4--|
--5-----5-----5--5--x--7--|-----7--x--2-----2--x--5--|-----5--5-----5--5--5--2--|-----2--2-----2--2--2--4--|
--------------------x--5--|-----5--x--0-----0--x-----|-----------------------0--|-----0--0-----0--0--0--2--|

  1     2     3     4     |  1     2     3     4     |  1     2     3     4     |  1     
    3     4     |

-----2--2--2--2--2--2--2--|--2--2--2--2--2--2--2--2--|--2--2--x--2--2--2--x--5--|--5--5--x--5--5--5--x--0--|
-----2--2--2--2--2--2--2--|--2--2--2--2--2--2--2--2--|--2--2--x--2--2--2--x--7--|--7--7--x--7--7--7--x--0--|
-----2--2--2--2--2--2--2--|--2--2--2--2--2--2--2--2--|--2--2--x--2--2--2--x--6--|--6--6--x--6--6--6--x--1--|
-----4--4--4--4--4--4--4--|--4--4--4--4--4--4--4--4--|--4--4--x--4--4--4--x--7--|--7--7--x--7--7--7--x--2--|
-----4--4--4--4--4--4--4--|--4--4--4--4--4--4--4--4--|--4--4--x--4--4--4--x--5--|--5--5--x--5--5--5--x--2--|
-----2--2--2--2--2--2--2--|--2--2--2--2--2--2--2--2--|--2--2--x--2--2--2--x-----|--------x-----------x--0--|

  1     2     3     4     |  1     2     3     4     |  1     2     3     4     |  1     
    3     4     |

--0--0--x--0--0--0--x--5--|--5--5--x--5--5--5--x--2--|--2--2--x--2--2--2--x--5--|--5--5--x--5--5--5--x--0--|
--0--0--x--0--0--0--x--7--|--7--7--x--7--7--7--x--2--|--2--2--x--2--2--2--x--7--|--7--7--x--7--7--7--x--0--|
--1--1--x--1--1--1--x--6--|--6--6--x--6--6--6--x--2--|--2--2--x--2--2--2--x--6--|--6--6--x--6--6--6--x--1--|
--2--2--x--2--2--2--x--7--|--7--7--x--7--7--7--x--4--|--4--4--x--4--4--4--x--7--|--7--7--x--7--7--7--x--2--|
--2--2--x--2--2--2--x--5--|--5--5--x--5--5--5--x--4--|--4--4--x--4--4--4--x--5--|--5--5--x--5--5--5--x--2--|
--0--0--x--0--0--0--x-----|--------x-----------x--2--|--2--2--x--2--2--2--x-----|--------x-----------x--0--|

  1     2     3     4     |  1     2     3     4     |  1     2     3     4     |  1     
    3     4     |

--0--0--x--0--0--0--x--5--|--5--5--x--5--5--5--x--2--|--2--2--x--2--2--2--x--5--|--5--5--x--5--5--5--x--0--|
--0--0--x--0--0--0--x--7--|--7--7--x--7--7--7--x--2--|--2--2--x--2--2--2--x--7--|--7--7--x--7--7--7--x--0--|
--1--1--x--1--1--1--x--6--|--6--6--x--6--6--6--x--2--|--2--2--x--2--2--2--x--6--|--6--6--x--6--6--6--x--1--|
--2--2--x--2--2--2--x--7--|--7--7--x--7--7--7--x--4--|--4--4--x--4--4--4--x--7--|--7--7--x--7--7--7--x--2--|
--2--2--x--2--2--2--x--5--|--5--5--x--5--5--5--x--4--|--4--4--x--4--4--4--x--5--|--5--5--x--5--5--5--x--2--|
--0--0--x--0--0--0--x-----|--------x-----------x--2--|--2--2--x--2--2--2--x-----|--------x-----------x--0--|

  1     2     3     4     |  1     2     3     4     |  1     2     3     4     |  1     
    3     4     |

--0--0--x--0--0--0--x--5--|--5--5--x--5--5--5--x--2--|--2--2--x--2--2--2--x--5--|--5--5--x--5--5--5--x--0--|
--0--0--x--0--0--0--x--7--|--7--7--x--7--7--7--x--2--|--2--2--x--2--2--2--x--7--|--7--7--x--7--7--7--x--0--|
--1--1--x--1--1--1--x--6--|--6--6--x--6--6--6--x--2--|--2--2--x--2--2--2--x--6--|--6--6--x--6--6--6--x--1--|
--2--2--x--2--2--2--x--7--|--7--7--x--7--7--7--x--4--|--4--4--x--4--4--4--x--7--|--7--7--x--7--7--7--x--2--|
--2--2--x--2--2--2--x--5--|--5--5--x--5--5--5--x--4--|--4--4--x--4--4--4--x--5--|--5--5--x--5--5--5--x--2--|
--0--0--x--0--0--0--x-----|--------x-----------x--2--|--2--2--x--2--2--2--x-----|--------x-----------x--0--|

  1     2     3     4     |  1     2     3     4     |  1     2     3     4     |  1     
    3     4     |

--0--0--x--0--0--0--x--5--|--5--5--x--5--5--5--x--2--|-----2--2--2--2--2--2--4--|-----4--4--4--4--4--4--0--|
--0--0--x--0--0--0--x--7--|--7--7--x--7--7--7--x--3--|-----3--3--3--3--3--3--6--|-----6--6--6--6--6--6--0--|
--1--1--x--1--1--1--x--6--|--6--6--x--6--6--6--x--4--|-----4--4--4--4--4--4--6--|-----6--6--6--6--6--6--1--|
--2--2--x--2--2--2--x--7--|--7--7--x--7--7--7--x--4--|-----4--4--4--4--4--4--6--|-----6--6--6--6--6--6--2--|
--2--2--x--2--2--2--x--5--|--5--5--x--5--5--5--x--2--|-----2--2--2--2--2--2--4--|-----4--4--4--4--4--4--2--|
--0--0--x--0--0--0--x-----|--------x-----------x-----|--------------------------|-----------------------0--|

  1     2     3     4     |  1     2     3     4     |  1     2     3     4     |  1     
    3     4     |

-----0--0--0--0--0--0--2--|-----2--2--2--2--2--2--2--|--5-----5-----5--5--x--5--|-----5--x--0-----0--x--5--|
-----0--0--0--0--0--0--2--|-----2--2--2--2--2--2--2--|--7-----7-----7--7--x--5--|-----5--x--0-----0--x--7--|
-----1--1--1--1--1--1--2--|-----2--2--2--2--2--2--2--|--6-----6-----6--6--x--6--|-----6--x--1-----1--x--6--|
-----2--2--2--2--2--2--4--|-----4--4--4--4--4--4--4--|--7-----7-----7--7--x--7--|-----7--x--2-----2--x--7--|
-----2--2--2--2--2--2--4--|-----4--4--4--4--4--4--4--|--5-----5-----5--5--x--7--|-----7--x--2-----2--x--5--|
-----0--0--0--0--0--0--2--|-----2--2--2--2--2--2--2--|--------------------x--5--|-----5--x--0-----0--x-----|

  1     2     3     4     |  1     2     3     4     |  1     2     3     4     |  1     
    3     4     |

-----5--5-----5--5--5--0--|-----0--0-----0--0--0--2--|-----2--2--2--2--2--2--2--|--2--2--2--2--2--2--2--0--|
-----7--7-----7--7--7--0--|-----0--0-----0--0--0--2--|-----2--2--2--2--2--2--2--|--2--2--2--2--2--2--2--0--|
-----6--6-----6--6--6--1--|-----1--1-----1--1--1--2--|-----2--2--2--2--2--2--2--|--2--2--2--2--2--2--2--1--|
-----7--7-----7--7--7--2--|-----2--2-----2--2--2--4--|-----4--4--4--4--4--4--4--|--4--4--4--4--4--4--4--2--|
-----5--5-----5--5--5--2--|-----2--2-----2--2--2--4--|-----4--4--4--4--4--4--4--|--4--4--4--4--4--4--4--2--|
-----------------------0--|-----0--0-----0--0--0--2--|-----2--2--2--2--2--2--2--|--2--2--2--2--2--2--2--0--|

  1     2     3     4     |  1     2     3     4     |  1     2     3     4     |  1     
    3     4     |

-----0--0--0--0--0--0--2--|-----2--2--2--2--2--2--2--|--5-----5-----5--5--x--5--|-----5--x--0-----0--x--5--|
-----0--0--0--0--0--0--2--|-----2--2--2--2--2--2--2--|--7-----7-----7--7--x--5--|-----5--x--0-----0--x--7--|
-----1--1--1--1--1--1--2--|-----2--2--2--2--2--2--2--|--6-----6-----6--6--x--6--|-----6--x--1-----1--x--6--|
-----2--2--2--2--2--2--4--|-----4--4--4--4--4--4--4--|--7-----7-----7--7--x--7--|-----7--x--2-----2--x--7--|
-----2--2--2--2--2--2--4--|-----4--4--4--4--4--4--4--|--5-----5-----5--5--x--7--|-----7--x--2-----2--x--5--|
-----0--0--0--0--0--0--2--|-----2--2--2--2--2--2--2--|--------------------x--5--|-----5--x--0-----0--x-----|

  1     2     3     4     |  1     2     3     4     |  1     2     3     4     |  1     
    3     4     |

-----5--5-----5--5--5--0--|-----0--0-----0--0--0--2--|-----2--2--2--2--2--2--2--|--2--2--2--2--2--2--2--2--|
-----7--7-----7--7--7--0--|-----0--0-----0--0--0--2--|-----2--2--2--2--2--2--2--|--2--2--2--2--2--2--2--2--|
-----6--6-----6--6--6--1--|-----1--1-----1--1--1--2--|-----2--2--2--2--2--2--2--|--2--2--2--2--2--2--2--2--|
-----7--7-----7--7--7--2--|-----2--2-----2--2--2--4--|-----4--4--4--4--4--4--4--|--4--4--4--4--4--4--4--4--|
-----5--5-----5--5--5--2--|-----2--2-----2--2--2--4--|-----4--4--4--4--4--4--4--|--4--4--4--4--4--4--4--4--|
-----------------------0--|-----0--0-----0--0--0--2--|-----2--2--2--2--2--2--2--|--2--2--2--2--2--2--2--2--|

  1     2     3     4     |  1     2     3     4     |  1     2     3     4     |  1     
    3     4     |

--2--2--2--2--2--2--2--0--|-----0--0--0--0--0--0--0--|--2--2--2--2--2--2--2--0--|-----0--0--0--0--0--0--0--|
--2--2--2--2--2--2--2--0--|-----0--0--0--0--0--0--0--|--2--2--2--2--2--2--2--0--|-----0--0--0--0--0--0--0--|
--2--2--2--2--2--2--2--1--|-----1--1--1--1--1--1--1--|--2--2--2--2--2--2--2--1--|-----1--1--1--1--1--1--1--|
--4--4--4--4--4--4--4--2--|-----2--2--2--2--2--2--2--|--4--4--4--4--4--4--4--2--|-----2--2--2--2--2--2--2--|
--4--4--4--4--4--4--4--2--|-----2--2--2--2--2--2--2--|--4--4--4--4--4--4--4--2--|-----2--2--2--2--2--2--2--|
--2--2--2--2--2--2--2--0--|-----0--0--0--0--0--0--0--|--2--2--2--2--2--2--2--0--|-----0--0--0--0--0--0--0--|

  1     2     3     4     |  1     2     3     4     |  1     2     3     4     |  1     
    3     4     |

--2--2--2--2--2--2--2--0--|-----0--0--0--0--0--0--0--|--2--2--2--2--2--2--2-----|-----------rest-----------|
--2--2--2--2--2--2--2--0--|-----0--0--0--0--0--0--0--|--2--2--2--2--2--2--2-----|-----------rest-----------|
--2--2--2--2--2--2--2--1--|-----1--1--1--1--1--1--1--|--2--2--2--2--2--2--2-----|-----------rest-----------|
--4--4--4--4--4--4--4--2--|-----2--2--2--2--2--2--2--|--4--4--4--4--4--4--4-----|-----------rest-----------|
--4--4--4--4--4--4--4--2--|-----2--2--2--2--2--2--2--|--4--4--4--4--4--4--4-----|-----------rest-----------|
--2--2--2--2--2--2--2--0--|-----0--0--0--0--0--0--0--|--2--2--2--2--2--2--2-----|-----------rest-----------|

  1     2     3     4     |  1     2     3     4     |  1     2     3     4     |  1     
    3     4     |

--0-----0--0--0--0--0--2--|-----2--2--2--2--2--2--2--|--5-----5-----5--5--x--5--|-----5--x--0-----0--x--5--|
--0-----0--0--0--0--0--2--|-----2--2--2--2--2--2--2--|--7-----7-----7--7--x--5--|-----5--x--0-----0--x--7--|
--1-----1--1--1--1--1--2--|-----2--2--2--2--2--2--2--|--6-----6-----6--6--x--6--|-----6--x--1-----1--x--6--|
--2-----2--2--2--2--2--4--|-----4--4--4--4--4--4--4--|--7-----7-----7--7--x--7--|-----7--x--2-----2--x--7--|
--2-----2--2--2--2--2--4--|-----4--4--4--4--4--4--4--|--5-----5-----5--5--x--7--|-----7--x--2-----2--x--5--|
--0-----0--0--0--0--0--2--|-----2--2--2--2--2--2--2--|--------------------x--5--|-----5--x--0-----0--x-----|

  1     2     3     4     |  1     2     3     4     |  1     2     3     4     |  1     
    3     4     |

-----5--5-----5--5--5--0--|-----0--0-----0--0--0--2--|-----2--2--2--2--2--2--2--|--2--2--2--2--2--2--2--2--|
-----7--7-----7--7--7--0--|-----0--0-----0--0--0--2--|-----2--2--2--2--2--2--2--|--2--2--2--2--2--2--2--2--|
-----6--6-----6--6--6--1--|-----1--1-----1--1--1--2--|-----2--2--2--2--2--2--2--|--2--2--2--2--2--2--2--2--|
-----7--7-----7--7--7--2--|-----2--2-----2--2--2--4--|-----4--4--4--4--4--4--4--|--4--4--4--4--4--4--4--4--|
-----5--5-----5--5--5--2--|-----2--2-----2--2--2--4--|-----4--4--4--4--4--4--4--|--4--4--4--4--4--4--4--4--|
-----------------------0--|-----0--0-----0--0--0--2--|-----2--2--2--2--2--2--2--|--2--2--2--2--2--2--2--2--|

  1     2     3     4     |  1     2     3     4     |  1     2     3     4     |  1     
    3     4     |

--0-----0-----0--0--0--2--|-----2--2--2--2--2--2--2--|--5-----5-----5--5--x--5--|-----5--x--0-----0--x--5--|
--0-----0-----0--0--0--2--|-----2--2--2--2--2--2--2--|--7-----7-----7--7--x--5--|-----5--x--0-----0--x--7--|
--1-----1-----1--1--1--2--|-----2--2--2--2--2--2--2--|--6-----6-----6--6--x--6--|-----6--x--1-----1--x--6--|
--2-----2-----2--2--2--4--|-----4--4--4--4--4--4--4--|--7-----7-----7--7--x--7--|-----7--x--2-----2--x--7--|
--2-----2-----2--2--2--4--|-----4--4--4--4--4--4--4--|--5-----5-----5--5--x--7--|-----7--x--2-----2--x--5--|
--0-----0-----0--0--0--2--|-----2--2--2--2--2--2--2--|--------------------x--5--|-----5--x--0-----0--x-----|

  1     2     3     4     |  1     2     3     4     |  1     2     3     4     |  1     
    3     4     |

-----5--5-----5--5--5--0--|-----0--0-----0--0--0--0--|--0--0--0--0--0--0--0--0--|--0--0--0--0--0--0--0--0--|
-----7--7-----7--7--7--0--|-----0--0-----0--0--0--0--|--0--0--0--0--0--0--0--0--|--0--0--0--0--0--0--0--0--|
-----6--6-----6--6--6--1--|-----1--1-----1--1--1--1--|--1--1--1--1--1--1--1--1--|--1--1--1--1--1--1--1--1--|
-----7--7-----7--7--7--2--|-----2--2-----2--2--2--2--|--2--2--2--2--2--2--2--2--|--2--2--2--2--2--2--2--2--|
-----5--5-----5--5--5--2--|-----2--2-----2--2--2--2--|--2--2--2--2--2--2--2--2--|--2--2--2--2--2--2--2--2--|
-----------------------0--|-----0--0-----0--0--0--0--|--0--0--0--0--0--0--0--0--|--0--0--0--0--0--0--0--0--|

  1     2     3     4     |  1     2     3     4     |  1     2     3     4     |  1     
    3     4     |

--2--2--2--2--2--2--2--0--|-----0--0--0--0--0--0--0--|--2--2--2--2--2--2--2--0--|-----0--0--0--x--x--x--x--|
--2--2--2--2--2--2--2--0--|-----0--0--0--0--0--0--0--|--2--2--2--2--2--2--2--0--|-----0--0--0--x--x--x--x--|
--2--2--2--2--2--2--2--1--|-----1--1--1--1--1--1--1--|--2--2--2--2--2--2--2--1--|-----1--1--1--x--x--x--x--|
--4--4--4--4--4--4--4--2--|-----2--2--2--2--2--2--2--|--4--4--4--4--4--4--4--2--|-----2--2--2--x--x--x--x--|
--4--4--4--4--4--4--4--2--|-----2--2--2--2--2--2--2--|--4--4--4--4--4--4--4--2--|-----2--2--2--x--x--x--x--|
--2--2--2--2--2--2--2--0--|-----0--0--0--0--0--0--0--|--2--2--2--2--2--2--2--0--|-----0--0--0--x--x--x--x--|

  1     2     3     4     |  1     2     3     4     |  1     2     3     4     |  1     
    3     4     |

--2--2--2--2--2--2--2--0--|-----0--0--0--0--0--0--0--|--2--2--2--2--2--2--2--0--|-----0--0--5--------------||
--2--2--2--2--2--2--2--0--|-----0--0--0--0--0--0--0--|--2--2--2--2--2--2--2--0--|-----0--0--7--------------||
--2--2--2--2--2--2--2--1--|-----1--1--1--1--1--1--1--|--2--2--2--2--2--2--2--1--|-----1--1--6--------------||
--4--4--4--4--4--4--4--2--|-----2--2--2--2--2--2--2--|--4--4--4--4--4--4--4--2--|-----2--2--7--------------||
--4--4--4--4--4--4--4--2--|-----2--2--2--2--2--2--2--|--4--4--4--4--4--4--4--2--|-----2--2--5--------------||
--2--2--2--2--2--2--2--0--|-----0--0--0--0--0--0--0--|--2--2--2--2--2--2--2--0--|-----0--0-----------------||

  1     2     3     4     |  1     2     3     4     |  1     2     3     4     |  1     
    3     4     ||
            
Submit corrections

comments powered by Disqus
↑ Back to top | Panic At The Disco Tabs for Only Difference Between Martyrdom And Suicide Is Press Coverage. Lyrics for acoustic guitar and electric guitar. Tablatures and chords are parodies/interpretations of the original songs. You may use it for private study, scholarship, research or language learning purposes only