» » »

Panic At The Disco, Northern Downpour Tabs (ver.2)

Artists:  A B C D E F G H I J K L M N O P Q R S T U V W X Y Z # 

Northern Downpour Tabs (ver.2)

Panic At The Disco Tabs
Rating:
0/5 (0 votes)
Northern Downpour lessons Tabs too difficult? Try these video lessons and learn fast
                -------------------------------------------------------------------------------
                             NORTHERN DOWNPOUR - Panic At The Disco
-------------------------------------------------------------------------------

Tuning: Standard

INTRO:
e|---------------------------------------------------------------------------|
B|---------------------------------------------------------------------------|
G|------3---------3----------------------------------------------------------|
D|-3----3-x8-3----3-x8-------------------------------------------------------|
A|-3-x8-1----3-x8-1----------------------------------------------------------|
E|-1---------1---------------------------------------------------------------|


VERSE:
e|---------------------------------------------------------------------------|
B|----------------------6----------6-----------------------------------------|
G|------3---------3-----7----------7----3------------------------------------|
D|-3----3-x8-3----3-x12-7-x4-3-----7-x4-3-x8---------------------------------|
A|-3-x8-1----3-x8-1-----5----3-x12-5----1------------------------------------|
E|-1---------1---------------1-----------------------------------------------|

VERSE 2/GUITAR 2:
e|---------------------------------------------------------------------------|
B|---------------------------------------------------------------------------|
G|--------0------------------------------------------------------------------|
D|----0h2--------------------------------------------------------------------|
A|---------------------------------------------------------------------------|
E|-33------------------------------------------------------------------------|

CHORUS:
e|---------------------------------------------------------------------------|
B|-1---------6----1----------------------------------------------------------|
G|-2----5----7----2----------------------------------------------------------|
D|-2-x8-5-x4-7-x4-2-x8-3-----------------------------------------------------|
A|-0----3----5----0----3-x8--------------------------------------------------|
E|---------------------1-----------------------------------------------------|

POST-CHORUS/OUTRO:
e|---------------------------------------------------------------------------|
B|-----------6---------------------------------------------------------------|
G|------3----7----3-3-3-3----------------------------------------------------|
D|-3----3-x8-7-x8-3-3-3-3----------------------------------------------------|
A|-3-x8-1----5----1-1-1-1----------------------------------------------------|
E|-1-------------------------------------------------------------------------|

VERSE 1
If all our life is but a dream 
Fantastic posing greed 
Then we should feed our jewelery to the sea 
For diamonds do appear to be 
Just like broken glass to me 

And then she said she can't believe 
Genius only comes along 
In storms of fabled foreign tongues 
Tripping eyes, and flooded lungs 
Northern downpour sends its love 

CHORUS
Hey moon, please forget to fall down 
Hey moon, don't you go down 

POST-CHORUS
Sugarcane in the easy mornin' 
Weathervanes my one and lonely 

VERSE 2
The ink is running toward the page 
It's chasin' off the days 
Look back at boat feet 
And that winding knee 
I missed your skin when you were east 
You clicked your heels and wished for me 

Through playful lips made of yarn 
That fragile Capricorn 
Unraveled words like moths upon old scarves 
I know the world's a broken bone 
But melt your headaches, call it home 

CHORUS
Hey moon, please forget to fall down 
Hey moon, don't you go down 

POST-CHROUS
Sugarcane in the easy mornin' 
Weathervanes my one and lonely 

OUTRO
Sugarcane (hey moon) in 
(Hey moon) the easy mornin' 
Weathervanes (hey moon) my 
(Hey moon) one and lonely 

Sugarcane (hey moon) in (hey moon) 
The easy (hey moon) mornin' 
Weathervanes (hey moon) my (hey moon) 
One (hey moon) and lonely 

[Continues in background:] 
Sugarcane (hey moon) in (hey moon) 
The easy (hey moon) mornin' 
Weathervanes (hey moon) my (hey moon) 
One (hey moon) and lonely 

Hey moon, please forget to fall down 
Hey moon, don't you go down 
You are at the top of my lungs 
Drawn to the ones who never yawn 
            
Submit corrections

comments powered by Disqus
↑ Back to top | Panic At The Disco Tabs for Northern Downpour. Lyrics for acoustic guitar and electric guitar. Tablatures and chords are parodies/interpretations of the original songs. You may use it for private study, scholarship, research or language learning purposes only