» » »

Panic At The Disco, Lying Is The Most Fun A Girl Can Have Without Taking Her Clothes Off Chords (ver.2)

Artists:  A B C D E F G H I J K L M N O P Q R S T U V W X Y Z # 

Lying Is The Most Fun A Girl Can Have Without Taking Her Clothes Off Chords (ver.2)

Panic At The Disco Tabs
 Rating:
4/5 (4 votes)
Lying Is The Most Fun A Girl Can Have Without Taking Her Clothes Off lessons Tabs too difficult? Try these video lessons and learn fast
                Lying Is The Most Fun A Girl Can Have Without Taking Her Clothes Off – Panic! At the disco

Verso #1:

Para Cm lleva:                               Para Ab:
|----------------------| 2 veces                     |-------------------|
|----------------------|                             |-------------------|
|-----8----8----8----8-|                             |-----5---5---5---5-|
|--10---10---10---10---|                             |---6---6---6---6---|
|----------------------|                             |-------------------|
|----------------------|                             |-------------------|

            Cm
Is it still me that makes you sweat? Am I who you think about in bed?
         Ab
When the lights are dim and your hands are shaking as you're sliding off your dress?
Cm
Then think of what you did And how I hope to God he was worth it.
         Ab
When the lights are dim and your heart is racing as you're fingers touch your skin.
              Cm
I've got more wit, a better kiss, a hotter touch, a better f**k
         Ab
Than any boy you'll ever meet, sweetie you had me
           Cm
Girl I was it look past the sweat, a better love deserving of
  Ab
Exchanging body heat in the passenger seat?
           Abmaj7
No, no, no you know it will always just be, me

Pre-Chorus:
Fm
Let's get these teen hearts beating. Faster, faster

Chorus:
   Cmadd9                   Bb5/F
So testosterone boys and harlequin girls
         Abmaj7/Eb
Will you dance to this beat, and hold a lover close?
   Cmadd9                   Bb5/F
So testosterone boys and harlequin girls
         Abmaj7/Eb
Will you dance to this beat, and hold a lover close?

Interlude:

     Cmadd9
So I guess we're back to us, oh cameraman, swing the focus
          Abadd9
In case I lost my train of thought, where was it that we last left off?

(Let's pick up, pick up)

Verse #2:

Para Cm lleva:                               Para Ab:
|----------------------| 2 veces                     |-------------------|
|----------8-----------|                             |---------4---------|
|-----8---------8----8-|                             |-----5-------5---5-|
|--10---10---10---10---|                             |---6---6---6---6---|
|----------------------|                             |-------------------|
|----------------------|                             |-------------------|


   Cm
Oh now I do recall, we just were getting to the part
          Ab
Where the shock sets in, and the stomach acid finds a new way to make you get sick.
Cm
I hope you didn't expect that you'd get all of the attention.
    Ab
Now let's not get selfish
Did you really think I?d let you kill this chorus?

Pre-Chorus:
Fm
Let's get these teen hearts beating. Faster, faster

Chorus:
Chorus:
   Cmadd9                   Bb5/F
So testosterone boys and harlequin girls
         Abmaj7/Eb
Will you dance to this beat, and hold a lover close?
   Cmadd9                   Bb5/F
So testosterone boys and harlequin girls
         Abmaj7/Eb
Will you dance to this beat, and hold a lover close?

Bridge:
Cmadd9         G/B
Dance to this beat
Abmaj7/Eb
Dance to this beat
Fm
Dance to this beat

Pre-Chorus:

Cm (Dejar sonar)
Let's get these teen hearts beating. Faster, faster
|-------10--------6----------------|
|----------8--------6----------8---|
|-----8---------7------------8-----|
|--10---------8-----------10-------|
|----------------------11----------|
|----------------------------------|

Let's get these teen hearts beating faster.
|-------10--------6--------------10-|
|----------8--------6----------8----|
|-----8---------7------------8------|
|--10---------8-----------10--------|
|----------------------11-----------|
|-----------------------------------|

Verse #3:
Para Cm lleva:                               Para Ab:
|----------------------| 2 veces                     |-------------------|
|----------8-----------|                             |---------4---------|
|-----8---------8----8-|                             |-----5-------5---5-|
|--10---10---10---10---|                             |---6---6---6---6---|
|----------------------|                             |-------------------|
|----------------------|                             |-------------------|

Para Gm lleva:                    Para Fm:
|-----------|                             |-----------|
|------3----|                             |------1----|
|----3---3--|                             |----1---1--|
|--5--------|                             |--3--------|
|-----------|                             |-----------|
|-----------|                             |-----------|

Cm
I've got more wit, a better kiss, a hotter touch, a better f**k
         Ab                           Gm       Fm
Than any boy you'll ever meet, sweetie you had me
           Cm
Girl I was it look past the sweat, a better love deserving of
  Ab                           Gm       Fm
Exchanging body heat in the passenger seat?
           Abmaj7/Eb
No, no, no you know it will always just be, me

Pre-Chorus:
Fm
Let's get these teen hearts beating. Faster, faster

Chorus:
   Cmadd9                   Bb5/F
So testosterone boys and harlequin girls
         Abmaj7/Eb
Will you dance to this beat, and hold a lover close?
   Cmadd9                   Bb5/F
So testosterone boys and harlequin girls
         Abmaj7/Eb
Will you dance to this beat, and hold a lover close?

Outro Chorus:
      Cm                  G/B
So testosterone boys and harlequin girls
Abmaj7/Eb
Dance to this beat
      Cm                  G/B
So testosterone boys and harlequin girls
Abmaj7/Eb
Dance to this beat
            Fm   Abmaj7/Eb (Dejar sonar)
And hold a lover close

Let's get these teen hearts beating. Faster, faster
|-------10--------6----------------|
|----------8--------6----------8---|
|-----8---------7------------8-----|
|--10---------8-----------10-------|
|----------------------11----------|
|----------------------------------|

Let's get these teen hearts beating. Faster.
|-------10--------6----------------|
|----------8--------6----------8---|
|-----8---------7------------8-----|
|--10---------8-----------10-------|
|----------------------11----------|
|----------------------------------|


ACORDES USADOS

 Fm          Cmadd9      Bb5/F     Abmaj7/Eb     G/B        Abmaj7
|--1--|     |-----|     |-----|     |-----|     |-----|     |--3--|
|--1--|     |-----|     |--11-|     |--8--|     |--8--|     |--4--|
|--1--|     |--8--|     |--10-|     |--8--|     |--7--|     |--5--|
|--3--|     |--12-|     |--8--|     |--6--|     |--5--|     |--6--|
|--3--|     |--10-|     |--8--|     |--6--|     |-----|     |-----|
|--1--|     |--8--|     |-----|     |-----|     |--7--|     |-----|
            
Submit corrections

comments powered by Disqus
↑ Back to top | Panic At The Disco Chords for Lying Is The Most Fun A Girl Can Have Without Taking Her Clothes Off. Lyrics for acoustic guitar and electric guitar. Tablatures and chords are parodies/interpretations of the original songs. You may use it for private study, scholarship, research or language learning purposes only