» » »

Panic At The Disco, I Write Sins Not Tragedies Tabs (ver.5)

Artists:  A B C D E F G H I J K L M N O P Q R S T U V W X Y Z # 

I Write Sins Not Tragedies Tabs (ver.5)

Panic At The Disco Tabs
Rating:
0/5 (0 votes)
I Write Sins Not Tragedies lessons Tabs too difficult? Try these video lessons and learn fast
                Hey guys this is my first tab so go easy. Im pretty sure its right just listen to the 
for timing. Please correct me if I have any mistakes.

Intro

e------------------------------------------------------------------|
b------------------------------------------------------------------|
g-------5---4--------5---4-------5--4-------5--4-------------------|
d-----2---2-------2----2-------2---2------2---2--------------------|
a---0-----------0------------0----------0--------------------------|
d------------------------------------------------------------------|

e------------------------------------------------------------------|
b-------3------------4------------1---1-------1---1----------------|
g-----5---5-4------5---5-4------4---4-------4---4------------------|
d---4------------4------------3-----------3------------------------|
a------------------------------------------------------------------|
d------------------------------------------------------------------|

Verse(play the intro twice)

Chorus
         First part X2

e----------------------------------------------|
b----------------------------------------------|
g----------------------------------------------|
d---7-7----7-7-7---------3-3--3-3-3-3----------|
a---7-7----7-7-7---------3-3--3-3-3-3----------|
d---7-7----7-7-7---------3-3--3-3-3-3----------|
  (down down up down up)(down down down up down up)

e--------------------------------------------------------|
b--7--7--7--7- 7--7--------------------------------------|
g--7--7--7--7- 7--7--------------------------------------|
d--7--7--7--7- 7--7----5-5-5-5---------------------------|
a--5--5--5--5--5--5----5-5-5-5---------------------------|
d----------------------5-5-5-5---------------------------|

   (down x6)        (down up down up)

Second Part X2

e---------------------------------------------------------------------|
b--------------------------------------7------------------------------|
g--------------------------------------7------------------------------|
d--7-7-7-7-7-7-7-7---3-3-3-3-3-3-3-3---7--------------------5-5-5-5---|
a--7-7-7-7-7-7-7-7---3-3-3-3-3-3-3-3---5--------------------5-5-5-5---|
d--7-7-7-7-7-7-7-7---3-3-3-3-3-3-3-3------------------------5-5-5-5---|

  (down x8)          (down x8)      (down x12)             (down x4)


Verse(same as first verse)

Pre Chorus(im not sure if this is right, listen to the song for timing)

e---------------------------------|
b---------------------------------|
g-----7--4-----5--7---------------|
d--3--7--4--3--5--7---------------|
a--3--5--2--3--3--5---------------|
d--3--------3---------------------|

Chorus(this time play part 2 of the chorus 4 times)

Poise and rationality....x2

e-------------------------------------------------------------------|
b-------------------7-7-7-7-7-7-7-7---------------------------------|
g-------------------7-7-7-7-7-7-7-7---------------------------------|
d--3-3-3-3-3-3-3-3--7-7-7-7-7-7-7-7---------------------------------|
a--3-3-3-3-3-3-3-3--5-5-5-5-5-5-5-5-5-5-5-5-5-5-5-5-5-5-5-5-5-5-5-5-|
d--3-3-3-3-3-3-3-3------------------4-4-4-4-4-4-4-4-4-4-4-4-4-4-4-4-|

Again.......

e---------------------------------------------------------------------|
b-------------------7-7-7-7-7-7-7-7-----------------------------------|
g-------------------7-7-7-7-7-7-7-7-----------------------------------|
d--3-3-3-3-3-3-3-3--7-7-7-7-7-7-7-7-----------------------------------|
a--3-3-3-3-3-3-3-3--5-5-5-5-5-5-5-5-5-5-5-5-5-5-5-5-5-5-5-5-5-5-5-5---|
d--3-3-3-3-3-3-3-3------------------4-4-4-4-4-4-4-4-4-4-4-4-4-4-4-4---|

e---------------------------------------|
b---------------------------------------|
g---------------------------------------|
d---3-3-3-3-3-3-3-3-3-3-3-3-3-3-3-3-----|
a---3-3-3-3-3-3-3-3-3-3-3-3-3-3-3-3-----|
d---3-3-3-3-3-3-3-3-3-3-3-3-3-3-3-3-----|

Last Chorus(play part 1 of the first chorus 4 times)


Ending

Poise and Rationality.......(same as above)

and Again.........(same as above)



e----------------|
b----------------|
g----------------|
d--3-3-3-3-------|
a--3-3-3-3-------|
d--3-3-3-3-------|        end of song................
            

comments powered by Disqus
↑ Back to top | Panic At The Disco Tabs for I Write Sins Not Tragedies. Lyrics for acoustic guitar and electric guitar. Tablatures and chords are parodies/interpretations of the original songs. You may use it for private study, scholarship, research or language learning purposes only