>
 >
I Constantly Thank God For Esteban 1

I Constantly Thank God For Esteban 1 Guitar Tabs

Panic At The Disco - I Constantly Thank God For Esteban 1 chords, tabs, tablatures, lyrics

Guitar lessons | Add/correct | Request | Top 50 tabs Artists:  A B C D E F G H I J K L M N O P Q R S T U V W X Y Z 0-9

I Constantly Thank God For Esteban 1 Guitar Tabs – Panic At The Disco

CD, Sheet music, Poster

Do you like I Constantly Thank God For Esteban 1? Share with your friends now
Bass TabsBass Tabs v2ChordsChords v2Chords v3TabsTabs v2Ukulele
\=slide down


E|--------------------------------------------------|
B|--------------------------------------------------|
G|--------------------------------------------------|
D|--------------------------------------------------|
A|--------------------------------------------------|
D|-5-5-5-5--5-0-0--0-7-8--3-3-3-3-3-1-1-4-4---------|

(0:06)
E|--------------------------------------------------|
B|--------------------------------------------------|
G|--------------------------------------------------|
D|--------------------------------------------------|
A|--------------------------------------------------|
D|-5-5-5-5--5-0-0--0-7-8-3-3-3-3-3-1-1-1-0-0-0------|

(0:11)
E|--------------------------------------------------|
B|--------------------------------------------------|
G|--------------------------------------------------|
D|--------------------------------------------------|
A|0-8-6-5-0-8-5-5-0-8-6-5--0-5-0-5-----------------|
D|-5--------4---------3---------5----4--------------|

(0:17)
E|--------------------------------------------------|
B|--------------------------------------------------|
G|--------------------------------------------------|
D|---------------------------------8-8-8-7-7-7-----|
A|-0-8-6-5--0-8-5-5---0-8-6-5-----8-8-8-7-7-7------|
D|-5--------4---------3------------8-8-8-7-7-7-----|

(0:30)
E|--------------------------------------------------|
B|--------------------------------------------------|
G|--------------------------------------------------|
D|-5------------------------------------------------|
A|-5------------------------------------------------|
D|-5------------------------------------------------|

(0:41)
E|--------------------------------------------------|
B|--------------------------------------------------|
G|--------------------------------------------------|
D|-5-5-5-5-5-5--------------------------------------|
A|-5-5-5-5-5-5--------------------------------------|
D|-5-5-5-5-5-5--------------------------------------|
(0:49)
E|-----------------------------------------|
B|-----------------------------------------|
G|-----------------------------------------|
D|-5-5--5-5-5--5-5-5--5-5-5--5-3-3--3-3-3--|
A|-5-5--5-5-5--5-5-5--5-5-5--5-3-3--3-3-3--|
D|-5-5--5-5-5--5-5-5--5-5-5--5-3-3--3-3-3--|

E|------------------------------------------|
B|------------------------------------------|
G|------------------------------------------|
D|3-3-3--3-3-3--3-1-1--1-1-1--1-1-1--1-1-1--|
A|3-3-3--3-3-3--3-1-1--1-1-1--1-1-1--1-1-1--|
D|3-3-3--3-3-3--3-1-1--1-1-1--1-1-1--1-1-1--|


E|-----------------------------------------------|
B|-----------------------------------------------|
G|-----------------------------------------------|
D|-0--0-0-0-0------------------------------------|
A|-0--0-0-0-0------------------------------------|
D|-0--0-0-0-0------------------------------------|

(1:00)
E|-----------------------------------------|
B|-----------------------------------------|
G|-----------------------------------------|
D|-5-5--5-5-5--5-5-5--5-5-5--5-3-3--3-3-3--|
A|-5-5--5-5-5--5-5-5--5-5-5--5-3-3--3-3-3--|
D|-5-5--5-5-5--5-5-5--5-5-5--5-3-3--3-3-3--|

E|---------------------------------------------|
B|---------------------------------------------|
G|---------------------------------------------|
D|3-3-3--3-3-3--3-1-1--1-1-1--1-1-1--1-1-1-----|
A|3-3-3--3-3-3--3-1-1--1-1-1--1-1-1--1-1-1-----|
D|3-3-3--3-3-3--3-1-1--1-1-1--1-1-1--1-1-1-----|


E|-----------------------------------------------|
B|-----------------------------------------------|
G|-----------------------------------------------|
D|-0--0-0-0-0------------------------------------|
A|-0--0-0-0-0------------------------------------|
D|-0--0-0-0-0------------------------------------|

(1:14)
E|------------------------------------------------|
B|------------------------------------------------|
G|------------------------------------------------|
D|-5-3-5------------------------------------------|
A|-5-3-5------------------------------------------|
D|-5-3-5------------------------------------------|

(1:30)
E|-------|
B|-------|
G|-------|
D|-5-----|
A|-5-----|
D|-5-----|

(1:46)
E|-----------------|
B|-----------------|
G|-----------------|
D|-5-5--5-5-5-5----|
A|-5-5--5-5-5-5----|
D|-5-5--5-5-5-5----|

(1:52)
E|-----------------------------------------|
B|-----------------------------------------|
G|-----------------------------------------|
D|-5-5--5-5-5--5-5-5--5-5-5--5-3-3--3-3-3--|
A|-5-5--5-5-5--5-5-5--5-5-5--5-3-3--3-3-3--|
D|-5-5--5-5-5--5-5-5--5-5-5--5-3-3--3-3-3--|

E|---------------------------------------------|
B|---------------------------------------------|
G|---------------------------------------------|
D|3-3-3--3-3-3--3-1-1--1-1-1--1-1-1--1-1-1-----|
A|3-3-3--3-3-3--3-1-1--1-1-1--1-1-1--1-1-1-----|
D|3-3-3--3-3-3--3-1-1--1-1-1--1-1-1--1-1-1-----|


E|-----------------------------------------------|
B|-----------------------------------------------|
G|-----------------------------------------------|
D|-0--0-0-0-0------------------------------------|
A|-0--0-0-0-0------------------------------------|
D|-0--0-0-0-0------------------------------------|
(2:03)
E|-----------------------------------------|
B|-----------------------------------------|
G|-----------------------------------------|
D|-5-5--5-5-5--5-5-5--5-5-5--5-3-3--3-3-3--|
A|-5-5--5-5-5--5-5-5--5-5-5--5-3-3--3-3-3--|
D|-5-5--5-5-5--5-5-5--5-5-5--5-3-3--3-3-3--|

E|---------------------------------------------|
B|---------------------------------------------|
G|---------------------------------------------|
D|3-3-3--3-3-3--3-1-1--1-1-1--1-1-1--1-1-1-----|
A|3-3-3--3-3-3--3-1-1--1-1-1--1-1-1--1-1-1-----|
D|3-3-3--3-3-3--3-1-1--1-1-1--1-1-1--1-1-1-----|


E|-----------------------------------------------|
B|-----------------------------------------------|
G|-----------------------------------------------|
D|-0--0-0-0-0------------------------------------|
A|-0--0-0-0-0------------------------------------|
D|-0--0-0-0-0------------------------------------|

(2:18)
E|-------------------------------------------|
B|-------------------------------------------|
G|-------------------------------------------|
D|-------------0-8-0-8-0-8-0-8-5--5-5-3--3-3-|
A|-------------0-8-0-8-0-8-0-8-5--5-5-3--3-3-|
D|-5--5-3--3---0-8-0-8-0-8-0-8-5--5-5-3--3-3-|

E|--------------------------------------------|
B|--------------------------------------------|
G|--------------------------------------------|
D|111-1-1-1-1--5-5-5-5-5-5-5-5-5----------|
A|1-1-1-1-1-1-1---5-5-5-5-5-5-5-5-5----------|
D|1-1-1-1-1-1-1---5-5-5-5-5-5-5-5-5----------|

(2:29)
E|------------------------------------------|
B|------------------------------------------|
G|------------------------------------------|
D|----0----0-8-0-8-0-8-0-8--5--5-5--3--3-3--|
A|0------0-8-0-8-0-8-0-8--5--5-5--3--3-3--|
D|-5----0--0-8-0-8-0-8-0-8--5--5-5--3--3-3--|


E|------------------------------------------------|
B|------------------------------------------------|
G|------------------------------------------------|
D|111-1-1-1-1-5---------------------5---------|
A|1-1-1-1-1-1-1--5---------------------5---------|
D|1-1-1-1-1-1-1--5---------------------5---------|

(2:41)
No guitar

(2:51)
E|-----------------------------------------|
B|-----------------------------------------|
G|-----------------------------------------|
D|-5-5--5-5-5--5-5-5--5-5-5--5-3-3--3-3-3--|
A|-5-5--5-5-5--5-5-5--5-5-5--5-3-3--3-3-3--|
D|-5-5--5-5-5--5-5-5--5-5-5--5-3-3--3-3-3--|

E|---------------------------------------------|
B|---------------------------------------------|
G|---------------------------------------------|
D|3-3-3--3-3-3--3-1-1--1-1-1--1-1-1--1-1-1-----|
A|3-3-3--3-3-3--3-1-1--1-1-1--1-1-1--1-1-1-----|
D|3-3-3--3-3-3--3-1-1--1-1-1--1-1-1--1-1-1-----|


E|------------|
B|------------|
G|------------|
D|-0--0-0-0-0-|(3x)
A|-0--0-0-0-0-|
D|-0--0-0-0-0-|

(3:15)
E|--------------------------------------------------|
B|--------------------------------------------------|
G|--------------------------------------------------|
D|--------------------------------------------------|
A|-------------------------------------------5------|   
D|-5-7-5-3-8--5-7-5-3-8-5-3--5-7-5-35-7-5----------|


E|-----------------------------------------|
B|-----------------------------------------|
G|-----------------------------------------|
D|-----------------------------------------|
A|----5------------------------------------|
D|-3--8--1-1-1-1-3-3-3-3-5-5-5-5-7-7-7-7-|

E|---------|
B|---------|
G|---------|
D|-5-5-5\4-|
A|-5-5-5\4-|
D|-5-5-5\4-|





Comments


Popular Panic At The Disco tabs & chords
Build God, Then We'll Talk 1 Bass Tabs
London Beckoned Songs About Money Written By Machines Bass Tabs
Time To Dance Bass Tabs
Bitterweet Chords
I Have Friends In Holy Spaces Chords
Karma Police Chords
The Ballad Of Mona Lisa 6 Chords
Nicotine Tabs
Sarah Smiles Tabs
Sarah Smiles Ukulele


Song lyrics



↑ Back to top | Tablatures and chords are parodies/interpretations of the original songs. You may use it for private study, scholarship, research or language learning purposes only
© 2014 AZChords.com Contact us | Privacy policy | DMCA | Add/correct tabs | Request tabs | Top 50 tabs