» » »

First Try Chords (ver.1)

Artists:  A B C D E F G H I J K L M N O P Q R S T U V W X Y Z # 

First Try Chords (ver.1)

Panic At The Disco
Rating:
5/5 (8 votes)

Hard to play? Try these video lessons and learn fast.
                ~~> Chords:
      Dm        F       Bb    C
e|----5---------8-------1--------3-------------------------------------------|
B|----6---------10------3--------5-------------------------------------------|
G|----7---------10------3--------5-------------------------------------------|
D|----7---------10------3--------5-------------------------------------------|
A|----5---------8-------1--------3-------------------------------------------|
E|---------------------------------------------------------------------------|


Dm              F              Bb
This town just wasn't made for two
Dm                                 F               Bb
But when the streets they call my name, what can I do?
Dm                          F                Bb
There's a place I'd like to visit there someday
            Dm            F                  Bb
And if you decline my invitation, what can I say?
     Dm Bb
What can I say?
     Dm Bb
What can I say?

Dm                        F              Bb  
When the corner light is dimmed upon the street
             Dm              F                  Bb
And all the faces looked confused on those you meet
           Dm                   F             Bb
Tell your friends that I'll be dead when you read this
             Dm                F            Bb
Tell them I couldn't take the pain of loneliness
   Dm    Bb
Of loneliness
   Dm    Bb
Of loneliness

Bb    C      Dm
I am feeling low
         F      C     Bb          C       Dm             F       C
And I'm singing in my sleep when you're around, will you comfort me?
Bb   C        Dm 
I'll dream of you
        F     C        Bb        C   Dm          
And the smile that you give, to me
         Bb
You give to me
     Dm       Bb     Dm      Bb
You give to me

SOLO

e|-------------------------------------------------------------------------------|
B|----------------10-----10-11-10----10------------13-10----10-11-10----10-------|
G|-10--7--10--12------12----------12----10--7--10--------12----------12----12-10-|
D|-------------------------------------------------------------------------------|
A|-------------------------------------------------------------------------------|
E|-------------------------------------------------------------------------------|

e|--------------------------------------------------------------------------|
B|--------------------------------------------------------------------------|
G|-7--10--12--12/14------7--10--12--10\9/10---------------------------------|
D|--------------------------------------------------------------------------|
A|--------------------------------------------------------------------------|
E|--------------------------------------------------------------------------|


Then the chords are the same.

It's the same thing everyday
Because we run out of things to say
If you're gone and me not here
It kind of sheads a diffrent light on the whole year
On the whole year
On the whole year

I am feeling low
And I'm singing in my sleep when you're around, will you comfort me?
I'll dream of you
And the smile that you give, to me
You give to me
You give to me
You give to me
            
Hard to play? Try these video lessons and learn fast. | Correct




comments powered by Disqus
↑ Back to top | Tablatures and chords are parodies/interpretations of the original songs. You may use it for private study, scholarship, research or language learning purposes only