» » »

Panic At The Disco, Camisado Tabs (ver.1)

Artists:  A B C D E F G H I J K L M N O P Q R S T U V W X Y Z # 

Camisado Tabs (ver.1)

Panic At The Disco Tabs
 Rating:
3.2/5 (23 votes)
Camisado lessons Tabs too difficult? Try these video lessons and learn fast
1
                

Any decent guitarist can find a strum pattern
All you should need is the chords which I’m sure are 100% accurate
Pretty easy song but it sounds sweet. Now I need to find some synth players haha
<3 panic!!!

Remember the chorus changes a lil and you'll b fine


Verse 1
(00:13)                  (00:38)
e|--------------------|--------------------------------------------|
B|--------------------|--------------------------------------------|
G|--------------------|--------------------------------------------|
D|--9--0--5--2-7------|--0-----------------------------------------|
A|--9--0--5--2-7-(x2)-|--0-----------------------------------------|
D|--9--0--5--2-7------|--0-----------------------------------------|

Chorus
(00:44)      (00:46)
e|--------|----------------------------------------------------|
B|--------|----------------------------------------------------|
G|--------|----------------------------------------------------|
D|--2--5--|--5--/7--9--9—-5--/7--9--9--0-----------------------|
A|--2--5--|--5--/7--9-—9--5--/7--9--9--0-----------------------|
D|--2--5--|--5--/7--9--9—-5--/7--9--9--0-----------------------|

Verse 2 (no guitar)
(1:10)

chorus
(1:38)
e|----------------------------------------------------|
B|----------------------------------------------------|
G|----------------------------------------------------|
D|--5--/7--9--9—-5--/7--2--2--0-----------------------|
A|--5--/7--9-—9--5--/7--2--2--0-----------------------|
D|--5--/7--9--9—-5--/7--2--2--0-----------------------|


Post-Chorus 2 (sit back, sit back…)
(1:50)
e|------------------------------------------------------------|
B|------------------------------------------------------------|
G|-----------------------7------------------------------------|
D|--5--4--2--0--5--7--9--7------------------------------------|
A|--5--4--2--0--5--7--9--5------------------------------------|
D|--5--4--2--0--5--7--9---------------------------------------|

Bridge (you’re a regular decorated emergency)
(2:03)             (2:16)        (2:32)
e|--------------|----------------------|----------------------|
B|--------------|----------------------|----------------------|
G|--------------|----------------------|----------------------|
D|--9/0----9/0--|--2---5---2--0--2--7--|--7-------------------|
A|--9/0----9/0--|--2---5---2--0--2--7--|--7-------------------|
D|--9/0----9/0--|--2—4/5/4-2--0--2--7--|--7-------------------|

Chorus
(2:33)
e|----------------------------------------------------|
B|----------------------------------------------------|
G|----------------------------------------------------|
D|--5--/7--9--—-5--/7--2------------------------------|
A|--5--/7--9-—--5--/7--2------------------------------|
D|--5--/7--9--—-5--/7--2------------------------------|

Post-Chorus
(2:46)                         (2:59)
e|--------------------------|--------------------------------|
B|--------------------------|--------------------------------|
G|--------------------------|--------------------------------|
D|--5--4--2--0--5--7--9--2--|--5~----------------------------|
A|--5--4--2--0--5--7--9--2--|--5~----------------------------|
D|--5--4--2--0--5--7--9--2--|--5~----------------------------|
            
Submit corrections

comments powered by Disqus
↑ Back to top | Panic At The Disco Tabs for Camisado. Lyrics for acoustic guitar and electric guitar. 1 Tablatures and chords are parodies/interpretations of the original songs. You may use it for private study, scholarship, research or language learning purposes only