>
 >
Always 1

Always 1 Guitar Tabs

Panic At The Disco - Always 1 chords, tabs, tablatures, lyrics

Guitar lessons | Add/correct | Request | Top 50 tabs Artists:  A B C D E F G H I J K L M N O P Q R S T U V W X Y Z 0-9

Always 1 Guitar Tabs – Panic At The Disco

CD, Sheet music, Poster

Do you like Always 1? Share with your friends now
ChordsTabsTabs v2Ukulele
------------------------------------------------------------------------------
                             Always- Panic! At The Disco
-------------------------------------------------------------------------------

Tuning: eBGDAE

e|---------------------------------------------------------------------------|
B|--------2--------------3----------------2----------------------------------|
G|--2-------2------2--------2------2----------2---------2----------1---------|
D|-----2--------------2----------------2--------------------2---4------------|
A|--0-----------0--0-----------0---0---------------0----0----------0---------|
E|----------------------------------------------------------0---0------------|

e|------------------------------------------------------------0--------------|
B|--------2----------------2--------------2-------------------------3--------|
G|--2---------2------1--------1-----0-------0-------------2-------------2----|
D|-----2----------------2--------------2---------------0---------------------|
A|--0------------0---0-----------0--0------------0---------------------------|
E|---------------------------------------------------------------------------|   x2

e|--------2----------------4-----------------5---------------2---------------|
B|--2--------2------2---------2-------2---------2------4--------4------------|
G|-----2----------------2----------------2----------------4------------------|
D|--4------------4--4-------------4---2------------2-------------------------|
A|-----------------------------------------------------2------------2--------|
E|---------------------------------------------------------------------------|

e|--------2-----------------0----------------0-------------------------------|
B|--3--------3-----------------0----------------3----------------------------|
G|-----2-------------2------------2---2------------2--2------------1---------|
D|--0-----------0-------2-----------------2---------------2----4-------------|
A|------------------------------------0---------------0------------0---------|
E|-------------------0------------------------------------0----0-------------|

e|-------------------------------------------0-------------------------------|
B|--------2--------------2-----------------------3---------3-----------------|
G|--2--------2----1----------1-----------2----------2------------------1-----|
D|-----2--------------2---------------0-----------------0----------4---------|
A|--0-----------0-0-------------0--------------------------------------0-----|
E|-----------------------------------------------------------------0---------|  x2

e|--------2----------------4-----------------5---------------2---------------|
B|--2--------2------2---------2-------2---------2------4--------4------------|
G|-----2----------------2----------------2----------------4------------------|
D|--4------------4--4-------------4---2------------2-------------------------|
A|-----------------------------------------------------2------------2--------|

e|--------2-----------------0----------------0--------------------0----------|
B|--3--------3-----------------0----------------3--------------------3-------|
G|-----2-------------2------------2---2------------2-----2--------------2----|
D|--0-----------0-------2-----------------2--------------------2-------------|
A|------------------------------------0------------------0-------------------|
E|-------------------0-------------------------------------------------------|

e|---------------------------------------------------------------------------|
B|--------2--------------3----------------2----------------------------------|
G|--2-------2------2--------2------2----------2---------2----------1---------|
D|-----2--------------2----------------2--------------------2---4------------|
A|--0-----------0--0-----------0---0---------------0----0----------0---------|
E|----------------------------------------------------------0---0------------|

e|------------------------------------------------------------0--------------|
B|--------2----------------2--------------2-------------------------3--------|
G|--2---------2------1--------1-----0-------0-------------2-------------2----|
D|-----2----------------2--------------2---------------0---------------------|
A|--0------------0---0-----------0--0------------0---------------------------|
E|---------------------------------------------------------------------------|   x2

e|--------2----------------4-----------------5---------------2---------------|
B|--2--------2------2---------2-------2---------2------4--------4------------|
G|-----2----------------2----------------2----------------4------------------|
D|--4------------4--4-------------4---2------------2-------------------------|
A|-----------------------------------------------------2------------2--------|
E|---------------------------------------------------------------------------|

e|--------2-----------------0----------------0-------------------------------|
B|--3--------3-----------------0----------------3----------------------------|
G|-----2-------------2------------2---2------------2--2------------1---------|
D|--0-----------0-------2-----------------2---------------2----4-------------|
A|------------------------------------0---------------0------------0---------|
E|-------------------0------------------------------------0----0-------------|

e|-------------------------------------------0-------------------------------|
B|--------2--------------2-----------------------3---------3-----------------|
G|--2--------2----1----------1-----------2----------2------------------1-----|
D|-----2--------------2---------------0-----------------0----------4---------|
A|--0-----------0-0-------------0--------------------------------------0-----|
E|-----------------------------------------------------------------0---------|  x2

e|--------2----------------4-----------------5---------------2---------------|
B|--2--------2------2---------2-------2---------2------4--------4------------|
G|-----2----------------2----------------2----------------4------------------|
D|--4------------4--4-------------4---2------------2-------------------------|
A|-----------------------------------------------------2------------2--------|

e|--------2-----------------0----------------0--------------------0----------|
B|--3--------3-----------------0----------------3--------------------3-------|
G|-----2-------------2------------2---2------------2-----2--------------2----|
D|--0-----------0-------2-----------------2--------------------2-------------|
A|------------------------------------0------------------0-------------------|
E|-------------------0-------------------------------------------------------|

e|------------------------------------------2--------------2-----------------|
B|---5--------5------5-------5-------3----------3----3---------3-------------|
G|------6---------6----6--------6--------2--------------2--------------------|
D|-----------------------------------0-------------0-0------------0----------|
A|---4-----4--4------4----4--4-----------------------------------------------|
E|---------------------------------------------------------------------------|

e|---------5--------------5-----------------2---------------2----------------|
B|--2---------2-----2--------2--------3--------3-----3---------3-------------|
G|-----2---------------2-----------------2---------------2-------------------|
D|--4------------4--4-----------4-----0-----------0--0------------0----------|
A|---------------------------------------------------------------------------|
E|---------------------------------------------------------------------------|

e|--------4----------------4----------------2------------2-------------------|
B|--5--------5------5---------5-------3-------3----3--------3----------------|
G|-----6---------------6-----------------2------------2----------------------|
D|--6-----------6---6------------6----0---------0--0-------------------------|
A|---------------------------------------------------------------------------|
E|---------------------------------------------------------------------------|

e|--------5------------5------------2------------0---------------------------|
B|--2-------2----2--------2----3-------3----3-------3-------3----------------|
G|-----2------------2------------2-------------2------------4------------1---|
D|--4---------4--4----------4--0---------0--0---------0----------2---4-------|
A|----------------------------------------------------------2------------0---|
E|---------------------------------------------------------------0---0-------|

e|-------------------------------------------0-------------------------------|
B|--------2--------------2-----------------------3---------3-----------------|
G|--2--------2----1----------1-----------2----------2------------------1-----|
D|-----2--------------2---------------0-----------------0----------4---------|
A|--0-----------0-0-------------0--------------------------------------0-----|
E|-----------------------------------------------------------------0---------|  x2

e|--------2----------------4-----------------5---------------2---------------|
B|--2--------2------2---------2-------2---------2------4--------4------------|
G|-----2----------------2----------------2----------------4------------------|
D|--4------------4--4-------------4---2------------2-------------------------|
A|-----------------------------------------------------2------------2--------|

e|--------2-----------------0----------------0--------------------0----------|
B|--3--------3-----------------0----------------3--------------------3-------|
G|-----2-------------2------------2---2------------2-----2--------------2----|
D|--0-----------0-------2-----------------2--------------------2-------------|
A|------------------------------------0------------------0-------------------|
E|-------------------0-------------------------------------------------------|

e|-------------------------------------------0------------0-----------0~-----|
B|---------2-----------------2-----------------3------------3---------2~-----|
G|---2---------2------1---------1--------2-------2-----2------2-------2~-----|
D|------2-----------------2-----------0-------------0-----------0-----2~-----|
A|---0-------------0--0------------0----------------------------------0~-----|
E|---------------------------------------------------------------------------|


************************************

| /   slide up
| \   slide down
| h   hammer-on
| p   pull-off
| ~   vibrato
| +   harmonic
| x   Mute note
| b   Bend
| pb  Pre-bend
| br  Bend release
| pbr Pre-bend release
| brb Bend release bend

************************************





Comments


Popular Panic At The Disco tabs & chords
Girlsgirlsboys 2 Bass Tabs
Lets Kill Tonight Chords
Nearly Witches Ever Since We Met 1 Chords
Time To Dance Live Chords
Trade Mistakes Chords
First Try Tabs
Folkin Around Tabs
That Green Gentleman Tabs
Time To Dance Tabs
Hurricane Ukulele


Song lyrics



↑ Back to top | Tablatures and chords are parodies/interpretations of the original songs. You may use it for private study, scholarship, research or language learning purposes only
© 2014 AZChords.com Contact us | Privacy policy | DMCA | Add/correct tabs | Request tabs | Top 50 tabs