» » »

Panda, Tripulacion Armar Toboganes Tabs (ver.1)

Artists:  A B C D E F G H I J K L M N O P Q R S T U V W X Y Z # 

Tripulacion Armar Toboganes Tabs (ver.1)

Panda Tabs
 Rating:
4/5 (4 votes)
Tripulacion Armar Toboganes lessons Tabs too difficult? Try these video lessons and learn fast
                
Esta canción esta bien chida, no esta muy trabajosa pero no se como ordenarla, hay la 
a neta el coro la verdad lo invente no se si vaya así pero por lo menos si suena.
Esta se la dedico a Arcelia, quien sabe donde estés pero nunca te olvidaré.

Intro:
e|---|---|---|---|---||---|---|---|-----|----|
B|---|---|---|-8-|-6-||---|---|---|-----|----|
A|---|---|---|---|---||---|---|---|-----|----|
E|---|---|---|---|---||---|---|---|-----|----|
      

e|-------------------------|
B|-------------8---8-6-----|
G|-8---8-7-8-7---------8-7-|
D|---8-----------8---------|
A|-------------------------|
E|-------------------------|

        <”Me enseñas...”>
e|-------------------------------------|
B|-----------------------------------8-|
G|-7---7---7---8---------7---7---7---0-|
D|---8---8---8---8-10-6----8---8---8---|
A|-------------------------------------|
E|-------------------------------------|

*Se repite otra vez todo lo de arriba, y en palm mute el “Coro:”.


   |Pre-Coro:||Post-Coro: |     Coro:<”Feliz ocupo ser...”>
e|-|---------||-----------|     e|---|---|---|---|
B|-|---------||-----------|     B|---|---|---|---|
G|-|5-5-5-7-8||-5-5-5-3-8-|     G|-8-|-3-|-5-|-7-|
D|-|5-5-5-7-8||-5-5-5-3-8-|     D|-8-|-3-|-5-|-7-|
A|-|3-3-3-5-6||-3-3-3-1-6-|     A|-6-|-1-|-3-|-5-|
E|-|---------||-----------|     E|---|---|---|---|


El solo no lo tengo pero es parecido a la parte donde dice “Me enseñas...”.

Se toca el coro y acaba con esto:
e|----------------------|
B|----------------------|
G|-5-5-5-7-8--5-5-5-3-8-|
D|-5-5-5-7-8--5-5-5-3-8-|
A|-3-3-3-5-6--3-3-3-1-6-|
E|----------------------|

Un saludo a la desintegrada banda “CHB”, Saquen las nuevas canciones de Qbo!!!

Erick Rosales Albo

Aguascalientes Ags. México.
            
Submit corrections

comments powered by Disqus
↑ Back to top | Panda Tabs for Tripulacion Armar Toboganes. Lyrics for acoustic guitar and electric guitar. Tablatures and chords are parodies/interpretations of the original songs. You may use it for private study, scholarship, research or language learning purposes only