» » »

Te Invito A Mi Fiesta Tabs (ver.1)

Artists:  A B C D E F G H I J K L M N O P Q R S T U V W X Y Z # 

Te Invito A Mi Fiesta Tabs (ver.1)

Panda
Rating:
0/5 (0 votes)

Tabs too difficult? Try these video lessons and learn fast.
                antes que nada, Panda toca un semitono abajo de Mi por lo que tendras que afinar
tu guitarra al tono correspondiente.

~ = deja vibrar
x = no suena
PM= palm mute (si no sabes que es esto y tocas punk tas jodido macho)
/ = desliza hacia la derecha
\ = desliza hacia la izquierda


Intro Guitarra 1:

----------------|
----------------|
--9~~~----------|
--9~~~----------|
--7~~~----------|
----------------|

Guitarra 2:

----------------|
----------------|
--9--4/-8/-9----|
--x--x--x--x----|
--7--2/-6/-7----|
----------------|

Scratch con la plumilla:

Guitarra 1:

----------------|
----------------|
--------2--4----|
--2--4--2--4----|
--2--4--0--2----|
--0--2----------|

Guitarra 2:

----------------------------------------------------|
----------------------------------------------------|
--9--8--4--8--9--14--13-----9--8--4--8--9--11--13---|
--x--x--x--x--x--x---x------x--x--x--x--x--x---x----|
--7--6--2--6--7--12--11-----7--6--2--6--7--9---11---|
----------------------------------------------------|

Te invito a pasar...

Aqui es puro bajo, pero si quieres aqui esta lo que hace:

-------------|
-------------|
-------------|
-------------|
----2--0-----|
-0-----------| Así hasta el coro.

Cuentame te la estas pasando...

Guitarras 1 y 2:

----------------|
----------------|
--------2--4----|
--2--4--2--4----|
--2--4--0--2----|
--0--2----------|

Para Tí...

Guitarra 1:

----------------|
----------------|
--------2--4----|
--2--4--2--4----|
--2--4--0--2----|
--0--2----------|

Guitarra 2:

----------------------------------------------------|
----------------------------------------------------|
--9--8--4--8--9--14--13-----9--8--4--8--9--11--13---|
--x--x--x--x--x--x---x------x--x--x--x--x--x---x----|
--7--6--2--6--7--12--11-----7--6--2--6--7--9---11---|
----------------------------------------------------|

Me llego un rumor...

-------------|
-------------|
-------------|
-------------|
----2--0-----|
-0-----------|

Dime porque y así yo te entenderé...


-------------|
-------------|
-------------|
-------------|
-------5-----|
-0--5--------|

Tienes miedo de...

Guitarra 1 y 2:

-------------|
-------------|
-9--4--2-----|
-9--4--2-----|
-7--2--0-----|
-------------|

Cuentame te la estas pasando...

Guitarras 1 y 2:

----------------|
----------------|
--------2--4----|
--2--4--2--4----|
--2--4--0--2----|
--0--2----------|

Bridge:

Cuentame te la estas pasando...

Guitarra 2:

--------------------|
-2/-4~~-4/9\4\2-1h2-| cuatro veces
--------------------|
--------------------|
--------------------|
--------------------|

Cuentame te la estas pasando...

Guitarra 1:

----------------|
----------------|
--------2--4----|
--2--4--2--4----|
--2--4--0--2----|
--0--2----------|

Guitarra 2:

--------------------|
--------------------|
--9/8\9--11--13--14-|
--x/x\x--x---x---x--|
--7/6\7--9---11--12-|
--------------------|
            
Tabs too difficult? Try these video lessons and learn fast.




comments powered by Disqus
↑ Back to top | Tablatures and chords are parodies/interpretations of the original songs. You may use it for private study, scholarship, research or language learning purposes only