>
 >
Tanto

Tanto Guitar Tabs

Panda - Tanto chords, tabs, tablatures, lyrics

Guitar lessons | Add/correct | Request | Top 50 tabs Artists:  A B C D E F G H I J K L M N O P Q R S T U V W X Y Z 0-9

Tanto Guitar Tabs – Panda

CD, Sheet music, Poster

Do you like Tanto? Share with your friends now
Tabs
Panda

intro
guitarra 1
e|----------------------------------------------------------|
b|----------------------------------------------------------|
g|------44-44-44-44-----------------------------------------| 
d|-2-4--44-44-44-44--22-22-22-22--66-66-66-66--44-44-44-44--|
a|-2-4--22-22-22-22--22-22-22-22--66-66-66-66--44-44-44-44--|
d|-0-2---------------00-00-00-00--44-44-44-44--22-22-22-22--|

guitarra 2
e|-------------------------------------------------------------|
b|---8-6-5-------5-6-5----------8-6-5-------5-6-5--------------|
g|-5-------7-5-7-------7-5-7--5-------7-5-7-------7-5-7-9/5-5--| 
d|-------------------------------------------------------------|
a|-------------------------------------------------------------|
d|-------------------------------------------------------------|

Yo hice una broma en un salon...
e|------------------------------|
b|------------------------------|
g|-4--4--4--------4--4--4-------| 
d|-4--4--4---2-4--4--4--4--2-4--|
a|-2--2--2---2-4--2--2--2--2-4--|
d|-----------0-2-----------0-2--|

despues de todo...
e|-----------------------------------------------------|
b|-----------------------------------------------------|
g|-44-44-44-44-----------------------------------------| 
d|-44-44-44-44--22-22-22-22--66-66-66-66--44-44-44-44--|
a|-22-22-22-22--22-22-22-22--66-66-66-66--44-44-44-44--|
d|--------------00-00-00-00--44-44-44-44--22-22-22-22--|

Y esta veeez...
e|---------------------------------------|
b|---------------------------------------|
g|---------------------------4--4--4--4--| 
d|-22-22-22-22--44-44-44-44--4--4--4--4--|
a|-22-22-22-22--44-44-44-44--2--2--2--2--|
d|-00-00-00-00--22-22-22-22--------------|

ouooo-ouooo-ouooo
e|-----------------------------------------------------|
b|-----------------------------------------------------|
g|--------------66-66-66-66--44-44-44-44--66-66-66-66--| 
d|-44-44-44-44--66-66-66-66--44-44-44-44--66-66-66-66--|
a|-44-44-44-44--44-44-44-44--22-22-22-22--44-44-44-44--|
d|-22-22-22-22-----------------------------------------|


se repite todo

y en el ultimo ouooo-ouooo!!! cambian los acordes
e|-----------------------------------------------------|
b|-----------------------------------------------------|
g|--------------88-88-88-88--66-66-66-66--88-88-88-88--| 
d|-66-66-66-66--88-88-88-88--66-66-66-66--88-88-88-88--|
a|-66-66-66-66--66-66-66-66--44-44-44-44--66-66-66-66--|
d|-44-44-44-44-----------------------------------------|

outro
e|----------------------------|
b|----------------------------|
g|-----------------6----------| 
d|-6---5---3---2---6---2-3-6--|
a|-6---5---3---2---4---2-3-6--|
d|-4---3---1---0-------0-1-4--|

Eso es todo, muy facil

Algun comentario, mentada de madre etc.
favor de mandar a:

           o a

atte: " The Original Punkater " (gabriel flores) y Arriba el PUNK!!!





Comments


Popular Panda tabs & chords
Oro Bass Tabs
Abigail Chords
Frauen Und Manner Chords
Amigo Bronco Tabs
Cuando No Es Como Deberia Ser Tabs
Hola! 2 Tabs
Lo Que No Fue Nunca Sera Tabs
MuñEca 2 Tabs
Pathetica Tabs
So Violento So Macabro 1 Tabs


Song lyrics



↑ Back to top | Tablatures and chords are parodies/interpretations of the original songs. You may use it for private study, scholarship, research or language learning purposes only
© 2014 AZChords.com Contact us | Privacy policy | DMCA | Add/correct tabs | Request tabs | Top 50 tabs