>
 >
So Violento So Macabro 1

So Violento So Macabro 1 Guitar Tabs

Panda - So Violento So Macabro 1 chords, tabs, tablatures, lyrics

Guitar lessons | Add/correct | Request | Top 50 tabs Artists:  A B C D E F G H I J K L M N O P Q R S T U V W X Y Z 0-9

So Violento So Macabro 1 Guitar Tabs – Panda

CD, Sheet music, Poster

Do you like So Violento So Macabro 1? Share with your friends now
Bass TabsChordsChords v2TabsTabs v2Ukulele
Intro x2
   1ra lira
D#||------8----7-------8----7----|------8----7-------8----7----|
A#||-----------------------------|-----------------------------|
F#||---------9----9-------9----9-|---------9----9-------9----9-|
C#||--10------------7------------|--10------------7------------|
G#||-----------------------------|-----------------------------|
D#||-----------------------------|-----------------------------|

------8-----7-----8-----10-----8--|-----8----7----8----10----8--|
----------------------------------|-----------------------------|
----------------------------------|--9-----9----9----9-----9----|
--10-----10----10----10-----10----|-----------------------------|
----------------------------------|-----------------------------|
----------------------------------|-----------------------------|

------8-----12-----8-----12-----8--|-----10----12----10----12----10--|
--10-----10-----10----10-----10----|--8------8-----8-----8-----8-----|
-----------------------------------|---------------------------------|
-----------------------------------|---------------------------------|
-----------------------------------|---------------------------------|
-----------------------------------|---------------------------------|
  2da lira
D#||-------------------|------------|----------------------------------|
A#||-------------------|------------|----------------------------------|
F#||-------------------|------------|--5-5-5-5-5-5-5-5-5-5-5-5-5-5-5-5-|
C#||-------------------|------------|--5-5-5-5-5-5-5-5-5-5-5-5-5-5-5-5-|
G#||-------------------|------------|--3-3-3-3-3-3-3-3-3-3-3-3-3-3-3-3-|
D#||-------------------|------------|----------------------------------|

----------------------------------|----------------------------------|
----------------------------------|----------------------------------|
--9-9-9-9-9-9-9-9-9-9-9-9-9-9-9-9-|----------------------------------|
--9-9-9-9-9-9-9-9-9-9-9-9-9-9-9-9-|--7-7-7-7-7-7-7-7-7-7-7-7-7-7-7-7-|
--7-7-7-7-7-7-7-7-7-7-7-7-7-7-7-7-|--7-7-7-7-7-7-7-7-7-7-7-7-7-7-7-7-|
----------------------------------|--5-5-5-5-5-5-5-5-5-5-5-5-5-5-5-5-|

----------------------------------|
----------------------------------|
----------------------------------|
--3-3-3-3-3-3-3-3-5-5-5-5-5-5-5-5-|
--3-3-3-3-3-3-3-3-5-5-5-5-5-5-5-5-|
--1-1-1-1-1-1-1-1-3-3-3-3-3-3-3-3-|


Verso 1 con Palm mute
------------------------------------------|
------------------------------------------|
--5---------------------------------------|
--5--5--5--5--5--5--5--5--5--5--5--5------|
--3--3--3--3--3--3--3--3--3--3--3--3--2---|
--------------------------------------0---|
Me cuesta tanto…
------------------------------------------|
------------------------------------------|
------------------------------------------|
--7---------------------------------------|
--7--7--7--7--7--7--7--7--7--7--7--7--2---|
--5--5--5--5--5--5--5--5--5--5--5--5--0---|

------------------------------------------|
------------------------------------------|
--5---------------------------------------|
--5--5--5--5--5--5--5--5--5--5--5--5------|
--3--3--3--3--3--3--3--3--3--3--3--3--2---|
--------------------------------------0---|





------------------------------------------|---------------------|
------------------------------------------|---------------------|
------------------------------------------|---------------------|
--7---------------------------------------|--5------------------|
--7--7--7--7--7--7--7--7--7--7--7--7--3---|--5--------------2---|
--5--5--5--5--5--5--5--5--5--5--5--5--1---|--3--------------0---|

---------------------|---------------------|--------------------|
---------------------|---------------------|--------------------|
---------------------|---------------------|--------------------|
--7------------------|--5------------------|--3--------5--------|
--7-------------3----|--5-------------2----|--3--------5--------|
--5-------------1----|--3-------------0----|--1--------3--------|

Verso 2
1er lira
------8-----7-----8-----10-----8--|-----8----7----8----10----8--|
----------------------------------|-----------------------------|
----------------------------------|--9-----9----9----9-----9----|
--10-----10----10----10-----10----|-----------------------------|
----------------------------------|-----------------------------|
----------------------------------|-----------------------------|
Y sabes de lo..
------8-----12-----8-----12-----8--|-----10----12----10----12----10-|
--10-----10-----10----10-----10----|--8------8-----8-----8-----8----|
-----------------------------------|--------------------------------|
-----------------------------------|--------------------------------|
-----------------------------------|--------------------------------|
-----------------------------------|--------------------------------| x2
2da lira
----------------------------------|----------------------------------|
----------------------------------|----------------------------------|
--5-5-5-5-5-5-5-5-5-5-5-5-5-5-5-5-|--9-9-9-9-9-9-9-9-9-9-9-9-9-9-9-9-|
--5-5-5-5-5-5-5-5-5-5-5-5-5-5-5-5-|--9-9-9-9-9-9-9-9-9-9-9-9-9-9-9-9-|
--3-3-3-3-3-3-3-3-3-3-3-3-3-3-3-3-|--7-7-7-7-7-7-7-7-7-7-7-7-7-7-7-7-|
----------------------------------|----------------------------------|

----------------------------------|----------------------------------|
----------------------------------|----------------------------------|
----------------------------------|----------------------------------|
--7-7-7-7-7-7-7-7-7-7-7-7-7-7-7-7-|--3-3-3-3-3-3-3-3-5-5-5-5-5-5-5-5-|
--7-7-7-7-7-7-7-7-7-7-7-7-7-7-7-7-|--3-3-3-3-3-3-3-3-5-5-5-5-5-5-5-5-|
--5-5-5-5-5-5-5-5-5-5-5-5-5-5-5-5-|--1-1-1-1-1-1-1-1-3-3-3-3-3-3-3-3-| x2

Breack
--------------------------------|---------------------------------|
--------------------------------|---------------------------------|
-----------------5-5-5-5-5------|---------------------------------|
--2-2-2-2-2------5-5-5-5-5------|--2-2-2-2-2------7-7-7-7-7-3-3-3-|
--2-2-2-2-2---2--3-3-3-3-3---2--|--2-2-2-2-2---2--7-7-7-7-7-3-3-3-|
--0-0-0-0-0---0--------------0--|--0-0-0-0-0---0--5-5-5-5-5-1-1-1-|


Verso 3 con efecto acustico

------------------------------------|---------------------------------|
-----(3)-(3)----------(3)-(3)-------|---------------------------------|
--5---5---5--5--5--5---5---5--5--5--|-----(5)-(5)----------(5)-(5)----|
--5---5---5--5--5--5---5---5--5--5--|--7---7---7--7--7--7---7---7--7--|
--3---3---3--3--3--3---3---3--3--3--|--7---7---7--7--7--7---7---7--7--|
------------------------------------|--5---5---5--5--5--5---5---5--5--|
Estoy elaborando…
------------------------------------|------------------------------------|
-----(3)-(3)----------(3)-(3)-------|------------------------------------|
--5---5---5--5--5--5---5---5--5--5--|-----(5)-(5)----------(5)-(5)-------|
--5---5---5--5--5--5---5---5--5--5--|--7---7---7--7--7--7---7---7--7--7--|
--3---3---3--3--3--3---3---3--3--3--|--7---7---7--7--7--7---7---7--7--7--|
------------------------------------|--5---5---5--5--5--5---5---5--5--5--|




---3------3------3----3----3----3-|---0------0-----(0)---0---(0)--(0)|
---3------3------3----3----3----3-|---1------1------1----1----1----1-|
---0------0-----(0)---0---(0)---0-|--(2)----(2)-----2---(2)---2----2-|
----------------------------------|---2------2------2----2----2----2-|
--(2)----(2)-----2---(2)---2---(2-|---0------0-----(0)---0---(0)--(0-|
--(3)----(3)----(3)--(3)--(3)--(3)|----------------------------------|
Confia en mi amor…

---3------3------3----3----3----3---|--1---------3---------|
---3------3------3----3----3----3---|--1---------3---------|
---0------0-----(0)---0---(0)---0---|--2---------0---------|
------------------------------------|--3---------0---------|
--(2)----(2)-----2---(2)---2---(2)--|-----------(2)--------|
--(3)----(3)----(3)--(3)--(3)--(3)--|----------------------|

Aquí comienza de nuevo la distorsión

1er lira
------8-----7-----8-----10-----8--|-----8----7----8----10----8--|
----------------------------------|-----------------------------|
----------------------------------|--9-----9----9----9-----9----|
--10-----10----10----10-----10----|-----------------------------|
----------------------------------|-----------------------------|
----------------------------------|-----------------------------|
De antemano…
------8-----12-----8-----12-----8--|-----10----12----10----12----10--|
--10-----10-----10----10-----10----|--8------8-----8-----8-----8-----|
-----------------------------------|---------------------------------|
-----------------------------------|---------------------------------|
-----------------------------------|---------------------------------|
-----------------------------------|---------------------------------| x2
2da lira
----------------------------------|----------------------------------|
----------------------------------|----------------------------------|
--5-5-5-5-5-5-5-5-5-5-5-5-5-5-5-5-|--9-9-9-9-9-9-9-9-9-9-9-9-9-9-9-9-|
--5-5-5-5-5-5-5-5-5-5-5-5-5-5-5-5-|--9-9-9-9-9-9-9-9-9-9-9-9-9-9-9-9-|
--3-3-3-3-3-3-3-3-3-3-3-3-3-3-3-3-|--7-7-7-7-7-7-7-7-7-7-7-7-7-7-7-7-|
----------------------------------|----------------------------------|

----------------------------------|----------------------------------|
----------------------------------|----------------------------------|
----------------------------------|----------------------------------|
--7-7-7-7-7-7-7-7-7-7-7-7-7-7-7-7-|--3-3-3-3-3-3-3-3-5-5-5-5-5-5-5-5-|
--7-7-7-7-7-7-7-7-7-7-7-7-7-7-7-7-|--3-3-3-3-3-3-3-3-5-5-5-5-5-5-5-5-|
--5-5-5-5-5-5-5-5-5-5-5-5-5-5-5-5-|--1-1-1-1-1-1-1-1-3-3-3-3-3-3-3-3-| x2

 Preparacion para el solo
-------------------|-------------------|
-------------------|-------------------|
-------------------|-------------------|
--2----------------|-------------------|
--2----------------|-------------------|
--0----------------|-------------------|

SOLO:
--------------------------------------------------|
--------------------------------------------------|
--12-12-12-9--9--9--------------------------------|
--------------------9--9--9--9--9--9--9--9--9--9--|
--------------------------------------------------|
--------------------------------------------------|

-----------------------------------------------|------------------------|
-----------------------------------------------|------------------------|
-12-12-12-9--9--9------------------------------|------------------------|
------------------9--9--9--9--9--9--9--9--9--9-|--9---5---9---5---2--2--|
-----------------------------------------------|--9---5---9---5---2--2--|
-----------------------------------------------|--7---3---7---3---0--0--|







------------------------|------------------------|
------------------------|------------------------|
------------------------|------------------------|
--9---5---9---5---2--2--|--9---5---9---5---2--2--|
--9---5---9---5---2--2--|--9---5---9---5---2--2--|
--7---3---7---3---0--0--|--7---3---7---3---0--0--|

--/18~----18~----18~----18~--|--18~----18~----/17~--17~-|
-----------------------------|--------------------------|
-----------------------------|--------------------------|
-----------------------------|--------------------------|
-----------------------------|--------------------------|
-----------------------------|--------------------------|

--/15~----15~--14~---13~--|--18~----18~----/17~----17~----|
--------------------------|-------------------------------|
--------------------------|-------------------------------|
--------------------------|-------------------------------|
--------------------------|-------------------------------|
--------------------------|-------------------------------|

--15~----14s----24~----24b----|--------------|------------|
------------------------------|--------------|------------|
------------------------------|--------------|------------|
------------------------------|--------------|------------|
------------------------------|--------------|------------|
------------------------------|--------------|------------|

4 verso Acustico
|--------------0-----------|
|--------1--------1-----1--|
|-----0-----0--------0-----|
|--------------------------|
|--3-----------------------|
|--------------------------|
Y sabes de…
--------------0-----------|--------------0-----------|--1--------3--|
--------0--------0-----0--|--------1--------1-----1--|--1--------3--|
-----0-----0--------0-----|-----------2--------2-----|--2--------0--|
--------------------------|-----2--------------------|--3--------0--|
--------------------------|--0-----------------------|--------------|
--0-----------------------|--------------------------|--------------|

5 verso
1er lira
------8-----7-----8-----10-----8--|-----8----7----8----10----8--|
----------------------------------|-----------------------------|
----------------------------------|--9-----9----9----9-----9----|
--10-----10----10----10-----10----|-----------------------------|
----------------------------------|-----------------------------|
----------------------------------|-----------------------------|
No lo hagó por mi…
------8-----12-----8-----12-----8--|-----10----12----10----12----10--|
--10-----10-----10----10-----10----|--8------8-----8-----8-----8-----|
-----------------------------------|---------------------------------|
-----------------------------------|---------------------------------|
-----------------------------------|---------------------------------|
-----------------------------------|---------------------------------| x2
2da lira
----------------------------------|----------------------------------|
----------------------------------|----------------------------------|
--5-5-5-5-5-5-5-5-5-5-5-5-5-5-5-5-|--9-9-9-9-9-9-9-9-9-9-9-9-9-9-9-9-|
--5-5-5-5-5-5-5-5-5-5-5-5-5-5-5-5-|--9-9-9-9-9-9-9-9-9-9-9-9-9-9-9-9-|
--3-3-3-3-3-3-3-3-3-3-3-3-3-3-3-3-|--7-7-7-7-7-7-7-7-7-7-7-7-7-7-7-7-|
----------------------------------|----------------------------------|

----------------------------------|----------------------------------|
----------------------------------|----------------------------------|
----------------------------------|----------------------------------|
--7-7-7-7-7-7-7-7-7-7-7-7-7-7-7-7-|--3-3-3-3-3-3-3-3-5-5-5-5-5-5-5-5-|
--7-7-7-7-7-7-7-7-7-7-7-7-7-7-7-7-|--3-3-3-3-3-3-3-3-5-5-5-5-5-5-5-5-|
--5-5-5-5-5-5-5-5-5-5-5-5-5-5-5-5-|--1-1-1-1-1-1-1-1-3-3-3-3-3-3-3-3-| x2


Termina asi
1er lira
|-------------------|--------------------|
|-------------------|--------------------|
|--9-------(0)------|--------------------|
|-------------------|--------------------|
|-------------------|--------------------|
|-------------------|--------------------|
2da lira
-------------------|-------------------|
-------------------|-------------------|
--5---------(0)----|-------------------|
--5---------(0)----|-------------------|
--3---------(0)----|-------------------|
-------------------|-------------------|

ojala que les guste!!!





Comments


Popular Panda tabs & chords
Ahh Pero Como Vendo Cassettes Tabs
Disculpa Los Malos Pensamientos 1 Tabs
Espejismos Y Visiones Tabs
La Vida En El Barandal Tabs
Miedo A Las Alturas Tabs
Muã±eca Intro Tabs
Promesasdesepciones Tabs
So Macabro So Violento Tabs
Tocame Esta Tabs
Amnistia 2 Ukulele


Song lyrics



↑ Back to top | Tablatures and chords are parodies/interpretations of the original songs. You may use it for private study, scholarship, research or language learning purposes only
© 2014 AZChords.com Contact us | Privacy policy | DMCA | Add/correct tabs | Request tabs | Top 50 tabs