>
 >
Solo A Terceros 3

Solo A Terceros 3 Guitar Tabs

Panda - Solo A Terceros 3 chords, tabs, tablatures, lyrics

Guitar lessons | Add/correct | Request | Top 50 tabs Artists:  A B C D E F G H I J K L M N O P Q R S T U V W X Y Z 0-9

Solo A Terceros 3 Guitar Tabs – Panda

CD, Sheet music, Poster

Do you like Solo A Terceros 3? Share with your friends now
TabsTabs v2Tabs v3Tabs v4Tabs v5Tabs v6
Panda- Solo a Terceros
Poetics, 2009

Muy bien esta es mi tablatura para Solo a Terceros
sinceramente no me gusta mucho Panda pero esta cancion rifa...
asi que la saque.. de oido
he visto las demas.. y sinceramente... dan pena ajena..
esta que les pondre esta 100%.. francamente yo no le encuentro ningun error 
no me digan que es afinacion en bemol... porq es standard
yo ya lo cheque cientos de veces  y estoy seguro
a aquellos que no les convence simplemente les digo que la escuchen...
que la escuchen miles de veces y la saquen con mi tablatura y van a ver
que no es afinacion bemol
disfrutenla
saludos..!
 ||| Esta tab es la la guitarra principal (de Arturo) |||


Intro (no necesita explicacion alguna) 4 veces
e|------------------|-----------------|----------------|-----------------|
B|------------------|-----------------|----------------|-------5---------|
G|------4-----4-----|-----4-----4-----|-----4----4-----|-----4---4-------|
D|----5-----5-----5-|---5-----5-----5-|---5----5-----5-|---5-------5-----|
A|--7-----7-----7---|-6-----6-----6---|-5----5-----5---|-4-----------(4)-|
E|------------------|-----------------|----------------|-----------------|
(4) nota fantasma: apenas se oye
 
  |~~ let ring ~~
            P.M.                    |~ let ring~          
e|------|-3~3-3-3-3-3-3-3-|-2-2-2-2-2-2-2-2-|  
B|-5~~~~|-3~3-3-3-3-3-3-3-|-2-2-2-2-2-2-2-2-|  
G|-4~~~~|-5~5-5-5-5-5-5-5-|-4-4-4-4-4-4-4-4-|  
D|-5~~~~|-5~5-5-5-5-5-5-5-|-4-4-4-4-4-4-4-4-|  
A|-4~~~~|-3~3-3-3-3-3-3-3-|-2-2-2-2-2-2-2-2-|
E|------|-3~3-3-3-3-3-3-3-|-2-2-2-2-2-2-2-2-|


Porque no puse el Palm Mute desde la primera de ocho notas..??
porque la primera vez la deja sonar y las restantes siete veces es
con palm mute.. despues.. en el siguente compas solo las primeras cuatro
son con palm mute ok..??


Ahora los versos son asi
           P.M                               P.M
e|-5-------------|-----------------|-5-------------|-----------------|
B|-5h6p5---------|-----------------|-5h6p5---------|-----------------|
G|-5-------------|-----------------|-5-------------|-----------------|
D|-------7-7-7-7-|-7-7-5-5-5-5-5-5-|-------7-7-7-7-|-----------------|
A|---------------|-----------------|---------------|-6-6-6-6-7-7-7-7-|
E|---------------|-----------------|---------------|-----------------|

h = hammer-on
p = pull-off
me preguntarian.. como se toca el verso..??
es muy simple... puse el palm mute justo donde va
nuevamente en la segunda repeticion del septimo traste de la cuerda 4
eso es en las 2 variantes


Puente... se toca todo en palm mute... 4 veces
   P.M.
e|-----------------|-----------------|-----------------|-----------------|
B|-----5-----5---5-|-----5-----5---5-|-----7-----7-----|-----9-----7-----|
G|---6-----6-------|---4-----4-------|---8-----8-----8-|---8-----8-----8-|
D|-7-----7-----7---|-6-----6-----6---|-9-----9-----9---|-9-----9-----9---|
A|-----------------|-----------------|-----------------|-----------------|
E|-----------------|-----------------|-----------------|-----------------|

Coro

                          x3.. luego.. la cuarta vez..                      
e||------------------------------||  |------------------------------|
B||------------------------------||  |------------------------------|
G||-6-6----9-9-------------------||  |-6-6----9-9----8-8--8-8--8--8-|
D||-6-6----9-9----6-6--6-6--6--6-||  |-6-6----9-9----9-9--9-9--9--9-|
A||-4-4----7-7----6-6--6-6--6--6-||  |-4-4----7-7----7-7--7-7--7--7-|
E||---------------4-4--4-4--4--4-||  |------------------------------|


                          x3.. luego..                       
e||------------------------------||  |------------------------------|
B||------------------------------||  |------------------------------|
G||-6-6----9-9-------------------||  |------------------------------|
D||-6-6----9-9----6-6--6-6--6--6-||  |-7-7----7-7----7-7--7-7--7--7-|
A||-4-4----7-7----6-6--6-6--6--6-||  |-7-7----7-7----7-7--7-7--7--7-|
E||---------------4-4--4-4--4--4-||  |-5-5----5-5----5-5--5-5--5--5-|

Despues de eso
se vuelve a tocar exactamente igual el verso, el puente y el coro
despues va el solo... que se toca asi (con un pedal whammy)

Solo
4 veces
e|-------------------|-------------------|
B|-13-13-13--8h10--8-|-------------------|
G|-------------------|-//999--9h10/12-12-|
D|-------------------|-------------------|
A|-------------------|-------------------|
E|-------------------|-------------------|

Despues del solo.. viene una especie de puente... que va asi

e|-------------------------|-------------------------|-----------------|
B|-11-11-11-11-11-11-11-11-|-------------------------|-----------------|
G|-------------------------|-10-10-10-10-10-10-10-10-|-9-9-9-9-9-9-9-9-|
D|-------------------------|-------------------------|-----------------|
A|-------------------------|-------------------------|-----------------|
E|-------------------------|-------------------------|-----------------|

e|-------------------------|-----------------|-------------------------|
B|----------11-11----------|-----------------|-10-10-10-10-10-10-------|
G|-12-12-12-------12-12-12-|-7-7-7-7-7-7-7-7-|-------------------10-10-|
D|-------------------------|-----------------|-------------------------|
A|-------------------------|-----------------|-------------------------|
E|-------------------------|-----------------|-------------------------|

e|-------------------------|-------------------------|
B|-------------------------|-------------------------|
G|-------------------------|-12-12-12-12-12-12-12-12-|
D|-10-10-10-10-10-10-10-10-|-------------------------|
A|-------------------------|-------------------------|
E|-------------------------|-------------------------|

e|-------------------------|-------------------------|-----------------|
B|-11-11-11-11-11-11-11-11-|-------------------------|-----------------|
G|-------------------------|-10-10-10-10-10-10-10-10-|-9-9-9-9-9-9-9-9-|
D|-------------------------|-------------------------|-----------------|
A|-------------------------|-------------------------|-----------------|
E|-------------------------|-------------------------|-----------------|

e|-------------------------|-----------------|
B|----------11-11----------|-----------------|
G|-12-12-12-------12-12-12-|-9~~~~~~~~~~~~~~~|
D|-------------------------|-----------------|
A|-------------------------|-----------------|
E|-------------------------|-----------------|

Despues de esto vienen un par de compases de silencio
y despues se repite nuevamente el coro
y termina la cancion

-----------------------------THE END---------------------------------------





Comments


Popular Panda tabs & chords
Ando Pedo Y Ella Está Aquí Bass Tabs
El Infame Estar Y No Estar Tabs
Maracas Tabs
Muã±eca Intro Tabs
Mueca Live Tabs
Narcisista Por Excelencia 3 Tabs
Sunny Blue Tabs
Tus Palabras Punzocortantes Tabs
Color Negro Pasion Ukulele
Nuestra Afliccin Ukulele


Song lyrics



↑ Back to top | Tablatures and chords are parodies/interpretations of the original songs. You may use it for private study, scholarship, research or language learning purposes only
© 2014 AZChords.com Contact us | Privacy policy | DMCA | Add/correct tabs | Request tabs | Top 50 tabs