» » »

Panda, Porque Todavia Podemos Deciruna Vez Mas Tabs (ver.1)

Artists:  A B C D E F G H I J K L M N O P Q R S T U V W X Y Z # 

Porque Todavia Podemos Deciruna Vez Mas Tabs (ver.1)

Panda Tabs
 Rating:
4/5 (4 votes)
Porque Todavia Podemos Deciruna Vez Mas lessons Tabs too difficult? Try these video lessons and learn fast
                Esta es una rola bien cheere d PXNDX ahí les va:

Canción: Porque todavía podemos decir "una vez más"
Artista : Panda

Intro y Verso (0:00 - 1:16)/ (2:05 - 2:51)
e |-------------------------------------------------------------|
B |---------0---------------0---------------0-4-0--------0-2-0--|
G |-------4----4---4------4—---4---4------4------------4--------|
D |-----2--------2------2--------2------2------------2----------|
A |-----------------------------------0------------0------------|
E |---0---------------4-----------------------------------------|

PRE-coro (1:16 - 1:31)/ (2:51 - 3:06)
e |------------------------------------------------------------------------|
B |-----------5----------------5-----------------5------------------5------|
G |-------6-----6----------6-----6-----------6-----6-----------6------6----|
D |-----6---6-----6------7---7-----7-------6---6-----6-------7---6-----7---|
A |---4-------------4-------------------4--------------4-------------------|
E |--------------------5-------------5---------------------5-------------5-|

e |----------------------------------------0---|
B |-----------5-----------------4----------2---|
G |-------6-----6-----------4-----4--------2---|
D |-----6---6-----6-------4---4-----4------2---|
A |---4-----------------2--------------2---0---|
E |----------------------------------------0---|

Coro (rasgueo) (1:31 - 2:05)/ (3:06 - 4:02)
e---0----0----0--------------------------0---------|
B---0----0----0--------------------------0---------|
G---4----4----4--Este va al final (2:02)-4---------|
D---2----2----2--------------------------2---------|
A---0----4----2--------------------------0---------|
E---0----0----0--------------------------2-2-2-2-2-|..


Final:

e---0--|
B---0--|
G---4--|
D---2--|
A---2--|
E---0--|
            
Submit corrections

comments powered by Disqus
↑ Back to top | Panda Tabs for Porque Todavia Podemos Deciruna Vez Mas. Lyrics for acoustic guitar and electric guitar. Tablatures and chords are parodies/interpretations of the original songs. You may use it for private study, scholarship, research or language learning purposes only