>
 >
Por Ella

Por Ella Guitar Tabs

Panda - Por Ella chords, tabs, tablatures, lyrics

Guitar lessons | Add/correct | Request | Top 50 tabs Artists:  A B C D E F G H I J K L M N O P Q R S T U V W X Y Z 0-9

Por Ella Guitar Tabs – Panda

CD, Sheet music, Poster

Do you like Por Ella? Share with your friends now
Tabs
Por ella_Tronic
INTRO

GUITARRA 1:
e----------------------------------------------------------------|
B----------------------------------------------------------------|
G-7X7X7X7X7X7X7X-2X2X2X2X000000004X4X4X4X2X2X2X2X-XX6XXX6XX6XXX6-|
D-7X7X7X7X7X7X7X-2X2X2X2X000000004X4X4X4X2X2X2X2X-XX7XXX7XX7XXX7-|
A----------------------------------------------------------------|
E----------------------------------------------------------------|
PM************************************************** *** ** ***

ELLA TENIA VEINTE Y                  SUBIO HASTA EL PISO 21 Y SE
                                          MARCHO SIN DECIR ADIOS
DECIDIO DARLE FIN A SU VIDA AS


e-------------------------------|
B-------------------------------|
G----7X7X7X7XX6X66XXXXXXXX------|
D----7X7X7X7XX7X77XXXXXXXX------|
A-------------------------------|
E-------------------------------|
Y ME PREGUNTO SI CUANDO VOLABA POR EL AIRE RECORDO

NOTA
BUENO ESO FUE LA INTRO PIENSO QUE ESTA EN UN %98 POR QUE LLEVA MUCHOS MUTE NOT ADEMAS 
COMO LA SAQUE SUENA BIEN Y ME PARTI EL COCO 25 MINUTOSPARA SACARLA ASI DE ESTA FORMA

GUITARRA 2:

e------                       e-----                        e------------|
B------                    B-----                               B--------|
G--11--                    G--9--                               G--7-----|
D--11--                    D--9--                                 D--7---|
A---9--                    A--7--                            A--5--------|
E------                    E-----                             E----------|

QUE ALGUNA VEZ LE DIGE SI TE  MATAS  TAMBIEN  LO  VOY A HACER   YOOOOOOOOO


EL VERSO PUEDE QUE LO HAGA SOLO EL BAJO Y BATACA PERO SUNA MEJOR LO HACEN CON LAINTRO A 
POCO VOLUMEN NO ME ESTAN PREGUNTANDO PERO ASI LO TOCO YO.

DES PUES DE  “Y ES QUE TANTA MIERDA EN LA CABEZA NO TE DEJA NI PENSAR” HACE ESTO

GUITARRA 1:

E-------------|
B-------------|
G--777--77-77-|
D--XXX--XX-XX-|
A--555--55-55-|
E-------------|




AMBAS GUITARRAS HACEN ESTO:

SIENTO QUE ESTA VEZ FUI YO EL QUE

e-----------------|
B-----------------|
G-----------------|
D-5-555-5-555-----|
A-5-555-5-555-----|
E-3-333-3-333-----|


ESTABA EN LO CORRECTO


e-----------------|
B-----------------|
G-----------------|
D-7-777-7-777-----|
A-7-777-7-777-----|
E-5-555-5-555-----|


POR ELLA, POR ELLA


e-----------------|
B-----------------|
G-----------------|
D-9-999-9-999-----|
A-9-999-9-999-----|
E-7-777-7-777-----|

POR ELLA ESTA CANCION


e-----------------|
B-----------------|
G-9-999-9999999---|
D-9-999-9999999---|
A-7-777-7777777---|
E-----------------|


========CORO========
AMBAS GUITARRAS TODO EL CORO:

NANA NANA NANA NANA NANA NA POR TI

e---------------------------------|
B---------------------------------|
G---------------------------------|     2 VECES
D-55555555/77777777/99999999/-----|
A-55555555/55555555/77777777/-----|
E-33333333/55555555/77777777/-----|


NANA NANA NANANANA

e---------------------|
B---------------------|
G------------------7--|
D-55-55555/777-777-7--|
A-55-55555/777-777-5--|
E-33-33333/555-555----|


A QUI SE TOCA EL VERSO POR 1 VEZ QUE ES = A LA INTRO EN LA GUITARRA 1

Y COMO QUE SE ESCUCHAN UNOS EFECTOS CUANDO DICE “COMO QUIERES QUE YO SIGA SOLO SABIENDO 
YA NOESTAS” Y LOS PUEDEN HACER ASI:

GUITARRA 2:

e-------------------|
B-------------------|
G-------------------|
D—12~~~~11-7~-------|
A-------------------|
E-------------------|
COMO QUIERES QUE TO SIGA SOLO SABIENDO QUE YA NO ESTAS

e-------------------|
B-------------------|
G-------------------|
D—7~~~~~12-11-7~----|
A-------------------|
E-------------------|
Y COMO QUIERES QUE AHORA YO DESPIERTE EN LA MAÑANA SI NO ESTA TU OLOR


DES PUES DE  “Y COMO VOY A HACER PARA SEGUIR” HACE ESTO

GUITARRA 1:

E-------------|
B-------------|
G--777--77-77-|
D--XXX--XX-XX-|
A--555--55-55-|
E-------------|


AMBAS GUITARRAS HACEN ESTO:

SIENTO QUE ESTA VEZ FUI YO EL QUE

e-----------------|
B-----------------|
G-----------------|
D-5-555-5-555-----|
A-5-555-5-555-----|
E-3-333-3-333-----|


ESTABA EN LO CORRECTO


e-----------------|
B-----------------|
G-----------------|
D-7-777-7-777-----|
A-7-777-7-777-----|
E-5-555-5-555-----|


POR ELLA, POR ELLA


e-----------------|
B-----------------|
G-----------------|
D-9-999-9-999-----|
A-9-999-9-999-----|
E-7-777-7-777-----|

POR ELLA ESTA CANCION


e-----------------|
B-----------------|
G-9-999-9999999---|
D-9-999-9999999---|
A-7-777-7777777---|
E-----------------|


========CORO========
AMBAS GUITARRAS TODO EL CORO:

NANA NANA NANA NANA NANA NA POR TI

e---------------------------------|
B---------------------------------|
G---------------------------------|     2 VECES
D-55555555/77777777/99999999/-----|
A-55555555/55555555/77777777/-----|
E-33333333/55555555/77777777/-----|


NANA NANA NANANANA
e---------------------|
B---------------------|
G------------------7--|
D-55-55555/777-777-7--|
A-55-55555/777-777-5--|
E-33-33333/555-555----|

INTERMEDIO UN POCO LENTO :
GUITARRA 1:

e--------------------|
B---7---7---7---7----|
G--7-7-7-7-7-7-7-7---|
D-0---0---0---0------|
A--------------------|
E--------------------|


A LA SEGUNDA VEZ DE EL DE ARRIVA ENTRA
LA GUITARRA 2:

e----------------|
B-8-7-8-10-8-10--|
G----------------|
D----------------|
A----------------|
E----------------|


LUEGO EN LAPARTE DE “VOY A CONTAR HASTA CINCO....” SOLO EL BAJO Y ALO LEJOS SE OLLE
EN LA GUITARRA 2:

e----------------|
B----------------|
G--7777-6666-----|
D----------------|
A----------------|
E----------------|

LUEGO EN “VOY A CONTAR HASTA 5 PARA QUE SALGAS DE ALLI”

ENTRA LA GUITARRA 1 CON ESTO:

e------------------|
B------------------|
G--7-7-7-7-6-6-6-6-|
D--7-7-7-7-7-7-7-7-|
A--5-5-5-5-5-5-5-5-|
E------------------|

“ABRIR Y QUE SEAS TU”
LUEGO AMBAS GUITARRAS HACEN ESTO:

e-----------------------------------------------------|
B-----------------------------------------------------|
G-------------------------------------------99995555--|
D-5555-5-5555-5/7777-7-7777-7/9999-9-9999-9/99997777--|
A-5555-5-5555-5/7777-7-7777-7/9999-9-9999-9/77775555--|
E-3333-3-3333-3/5555-5-5555-5/7777-7-7777-7-----------|



========CORO========
AMBAS GUITARRAS TODO EL CORO:

NANA NANA NANA NANA NANA NA POR TI

e---------------------------------|
B---------------------------------|
G---------------------------------|     4 VECES
D-55555555/77777777/99999999/-----|
A-55555555/55555555/77777777/-----|
E-33333333/55555555/77777777/-----|


NANA NANA NANANANA
e---------------------|
B---------------------|
G------------------7--|
D-55-55555/777-777-7--|
A-55-55555/777-777-5--|
E-33-33333/555-555----|


SÍMBOLOS

*=PALM MUTE
X=MUTE NOTE
/=SLADE
~=VIBRATOS





Comments


Popular Panda tabs & chords
Casi Nula Autoestima 2 Bass Tabs
Cita En El Quirofano Bass Tabs
Corazon De Un Cuento Roto Bass Tabs
Cita En El Quirofano 1 Chords
Agradable Locura Temporal 1 Tabs
Del Rapto Y Otros Pormenores 1 Tabs
Oro 2 Tabs
Adheridos Separados Ukulele
Lascivamente Ukulele
So Violento So Macabro Ukulele


Song lyrics



↑ Back to top | Tablatures and chords are parodies/interpretations of the original songs. You may use it for private study, scholarship, research or language learning purposes only
© 2014 AZChords.com Contact us | Privacy policy | DMCA | Add/correct tabs | Request tabs | Top 50 tabs