>
 >
Pathetica 1

Pathetica 1 Guitar Tabs

Panda - Pathetica 1 chords, tabs, tablatures, lyrics

Guitar lessons | Add/correct | Request | Top 50 tabs Artists:  A B C D E F G H I J K L M N O P Q R S T U V W X Y Z 0-9

Pathetica 1 Guitar Tabs – Panda

CD, Sheet music, Poster

Do you like Pathetica 1? Share with your friends now
TabsTabs v2Tabs v3Tabs v4Tabs v5Tabs v6

                      
                       ****Pathetica****


INTRO

1 Guitarra

e|-----------------12-11-9------|
B|--9-9-9-10-10-10----------12--|
G|------------------------------|
D|------------------------------| -----------
A|------------------------------|            |
E|------------------------------|            |
                                             x2
                                             |    
e|-----------------12-14-11-----|            |
B|-9-9-9-10-10-10-----------12--| -----------
G|------------------------------|
D|------------------------------|   
A|------------------------------|    
E|------------------------------|

INTRO

2 GuitaRRa

e|---------------------------|
B|---------------------------|
G|--5555------8888-----------|
D|--5555-6666-8888-8888------| X2
A|--3333-6666-6666-8888------|
E|-------4444------6666------|

Guitarra 1

e|------12------12--------9-16----9--16-12----14-11----|
B|-9-10----9-10----9---12------12----------12-------12-|
G|-----------------------------------------------------|
D|-----------------------------------------------------|
A|-----------------------------------------------------|
E|-----------------------------------------------------|


e|------12------12-------9-16----9--16-------------------|
B|-9-10----9-10----9--12------12-------14-11-------------|
G|-------------------------------------------11-13-11-10-|
D|-------------------------------------------------------|
A|-------------------------------------------------------|
E|-------------------------------------------------------|


e|-----------------------------|
B|-----------------------------|
G|-----5-----------8-----------|
D|-----5-----6-----8-----8-----| X2  Esta parte es
A|--3333-----6--6666-----8-----|     MuteAda!*
E|--------4444--------6666-----|


 Esta es la parte del Bajo y el coro

|-----------------------------------------|
|-----------------------------------------| X2
|--4-4-4-4--------------------------------|
|----------5-5-5-5-0-0-0-0-7-7-7-7--------|
  -talvez ya te cansaste de...

e--------------------------------------|
B--------------------------------------|
G-55-----88-----55-------88----5---8---|
D-55-----88-----55-------88----5-6-8---|
A-33-----66-----33-------66----3-6-6---|
E--------------------------------4-----|
  -Quiza nunk pazara, quiza...

  Coro:    1ra Guitarra
e|-----------------12-11-9------|
B|--9-9-9-10-10-10----------12--|
G|------------------------------|
D|------------------------------| 
A|------------------------------|           
E|------------------------------|           
                                             
                                                 
e|-----------------12-14-11-----|            
B|-9-9-9-10-10-10-----------12--|
G|------------------------------|
D|------------------------------|   
A|------------------------------|    
E|------------------------------|

   2da Guitarra
e|---------------------------|
B|---------------------------|
G|--5555------8888-----------|
D|--5555-6666-8888-8888------| X2
A|--3333-6666-6666-8888------|
E|-------4444------6666------|

e----------------------------------------------------------------|
B----------------------------------------------------------------|
G-----------5-----------5----------------------------------------|
D-6---8-----5---6---8---5----------------------------------------|
A-6---8-----3---6---8---3----5-6-5-3-5--6-8-6-5-3--5-6-5-3-5-6-8-|
E-4---6---------4---6--------------------------------------------|
|-----------------------------------------|
|-----------------------------------------| X2
|--4-4-4-4--------------------------------|
|----------5-5-5-5-0-0-0-0-7-7-7-7--------|
  -talvez ya te cansaste de...

  Coro:    1ra Guitarra
e|-----------------12-11-9------|
B|--9-9-9-10-10-10----------12--|
G|------------------------------|
D|------------------------------| 
A|------------------------------|           
E|------------------------------|           
                                             
                                                 
e|-----------------12-14-11-----|            
B|-9-9-9-10-10-10-----------12--|
G|------------------------------|
D|------------------------------|   
A|------------------------------|    
E|------------------------------|

   2da Guitarra
e|---------------------------|
B|---------------------------|
G|--5555------8888-----------|
D|--5555-6666-8888-8888------| X2
A|--3333-6666-6666-8888------|
E|-------4444------6666------|

Guitarra 1ra

e|------12------12--------9-16----9--16-12----14-11----|
B|-9-10----9-10----9---12------12----------12-------12-|
G|-----------------------------------------------------|
D|-----------------------------------------------------|
A|-----------------------------------------------------|
E|-----------------------------------------------------|


e|------12------12-------9-16----9--16-------------------|
B|-9-10----9-10----9--12------12-------14-11-------------|
G|-------------------------------------------11-13-11-10-|
D|-------------------------------------------------------|
A|-------------------------------------------------------|
E|-------------------------------------------------------|

  2da Guitarra
e|-----------------------------|
B|-----------------------------|
G|-----5-----------8-----------|
D|-----5-----6-----8-----8-----| X2  
A|--3333-----6--6666-----8-----|    
E|--------4444--------6666-----|

    
  
         Eso es todo lo que pude sacar 
   le mando saludos a memo, eric y a evelyn.... y arriba System of a Down!!!





Comments


Popular Panda tabs & chords
Abierto Bass Tabs
Casi Nula Autoestima Bass Tabs
Cortame Con Unas Tijeras Tabs
Del Rapto Y Otros Pormenores Tabs
Mi Muneca 1 Tabs
Muceca 1 Tabs
Pathetica 2 Tabs
Solo A Terceros 3 Tabs
Cuando No Es Como Deberia Ser Ukulele
Cuando No Es Como Deberia Ser 2 Ukulele


Song lyrics



↑ Back to top | Tablatures and chords are parodies/interpretations of the original songs. You may use it for private study, scholarship, research or language learning purposes only
© 2014 AZChords.com Contact us | Privacy policy | DMCA | Add/correct tabs | Request tabs | Top 50 tabs