» » »

Panda, Nuestra Afliccion Tabs (ver.3)

Artists:  A B C D E F G H I J K L M N O P Q R S T U V W X Y Z # 

Nuestra Afliccion Tabs (ver.3)

Panda Tabs
 Rating:
4/5 (4 votes)
Nuestra Afliccion lessons Tabs too difficult? Try these video lessons and learn fast
                LA GUITARRA DE PP VA AFINADA EN BEMOL CON CAPO EN EL 2DO TRASTE Y LA DE R2D2 VA EN 
BEMOL( LA DE PP SON LA DE LOS ACORDES Y LA R2D2 SON LAS TABLATURAS)
Hay 2 acordes raros pero asi toca exactamente pp la cancion, Son:
                                    
||--3----------------|--3----------------|-------------------||
||--3----------------|--3----------------|-------------------||
||--0----------------|--0----------------|-------------------||
||--0-este-es-Gsus4--|--0-y-este-es-G7m--|-------------------||
||--3----------------|--2----------------|-------------------||
||--3----------------|--2----------------|-------------------||


VERSO 1: SOLO PP
D
Cuanto
              F#m
cuanto se necesita
           Bm
para ya resolver, destruir,
       Gsus4    6||--2----||
este dilema que me tortura
       Em
en las noches,
             A 
no me deja soñar,
               Em
amplifica mis temores,
     Gsus4  A 
ciclo cabal

VERSO: 2
PP:
 D
me encerre
                    F#m
y acabe con mis sueños
               Bm
y la llave arroje,
             Gsus4 6||--2----||
¿para que? los necesito
                   Em
solo me causan angustia,
                  A 
me hace falta un plan,
                 Em
me hace falta astucia
       Gsus4    A 
y paz mental

R2D2 CASI NO SE OYE MUCHO PERO OIGANLA BIEN Y LE ATINARAN:                  
-----------------|-------|--------------------|---------------|-------|
----------9------|-------|-----------9--------|---------------|-------|
--9----8---------|-------|--------8-----8-----|---------------|-------|
-----------------|-------|-----6-----------6--|---------------|-------|
-----------------|-------|--------------------|---------------|-------|
-----------------|-------|--------------------|---------------|-------|
      
-------|------------------|---------|-------------------|---------------|
-------|------------------|---------|----------7--------|---------------|
-------|------------------|---------|-------------6-----|---------------|
-------|--7----9--11------|---------|-------7--------7--|---------------|
-------|------------------|---------|-------------------|---------------|
-------|------------------|---------|-------------------|---------------|
    
-------|-------|-------------------|---------------|------------------|
-------|-------|----------7--------|---------------|------------------|
-------|-------|-------------6-----|---------------|------------------|
-------|-------|-------7--------7--|---------------|--7----9--11------|
-------|-------|-------------------|---------------|------------------|
-------|-------|-------------------|---------------|------------------|

VERSO 3:
PP:
  D                      F#m
entiendo el rechazo del mundo,
            Bm
tu repudio amor, pues es igual
        Gsus4 G7m
si me conociera,
                    Em
talves voltearia mi cara,
                   A 
talves sentiria lastima,
                     Em
dicen que el amor mancha
         Gsus4   A 
y ya me ensucie

R2D2:       
-------|-----------------|-------|--------------------|---------------|
-------|----------9------|-------|-----------9--------|---------------|
-------|-------8---------|-------|--------8-----8-----|---------------|
-------|-----------------|-------|-----6-----------6--|--L------------|
-------|-----------------|-------|--------------------|---------------|
-------|-----------------|-------|--------------------|---------------|

-------|-------|------------------|---------|-------------------|
-------|-------|------------------|---------|----------7--------|
-------|-------|------------------|---------|-------------6-----|
-------|-------|--7----9--11------|---------|-------7--------7--|
-------|-------|------------------|---------|-------------------|
-------|-------|------------------|---------|-------------------|
          
---------------|-------|-------|-------------------|---------------|
---------------|-------|-------|----------7--------|---------------|
---------------|-------|-------|-------------6-----|---------------|
--L------------|-------|-------|-------7--------7--|--L------------|
---------------|-------|-------|-------------------|---------------|
---------------|-------|-------|-------------------|---------------|

------------------|---------|
------------------|---------|
------------------|---------|
--7----9--11------|---------|
------------------|---------|
------------------|---------|
 
CORO
PP:
D              F#m
parece, si parece
      Bm
oh no no 
                Gsus4 G7m
que lo mucho que ofrezco
                      D
no ofrece tanto y por eso,
    F#m
por eso
        Bm
me afronte
                    Gsus4 G7m
y dejaré de ser una carga,
                              Em
pues yo ya no aguanto mas farsas
                A 
no lo puedo evitar,
                       Em
sentir que muere mi flama,
           Gsus4  A 
cuando no estas

R2D2: 
|------------------------|
|------------------------|
|------------------------|
|--2--2-2-2-2-2--2-2-2-2-|
|--2--2-2-2-2-2--2-2-2-2-|
|--0--0-0-0-0-0--0-0-0-0-|
 
------------------------|------------------------|------------------------|
------------------------|------------------------|------------------------|
------------------------|------------------------|------------------------|
--2--2-2-2-2-2--2-2-2-2-|--6--6-6-6-6-6--6-6-6-6-|--6--6-6-6-6-6--6-6-6-6-|
--2--2-2-2-2-2--2-2-2-2-|--6--6-6-6-6-6--6-6-6-6-|--6--6-6-6-6-6--6-6-6-6-|
--0--0-0-0-0-0--0-0-0-0-|--4--4-4-4-4-4--4-4-4-4-|--4--4-4-4-4-4--4-4-4-4-|
     PM PM PM PM                            PM PM PM PM PM     
--------------------|--------------------|--------------------|
--------------------|--------------------|--------------------|
--6-----------------|--6--6--6--6--6--6--|--------------------|
--6--6--6--6--6--6--|--6--6--6--6--6--6--|--------------------|
--4--4--4--4--4--4--|--4--4--4--4--4--4--|--7--7--7--7--7--7--|
--------------------|--------------------|--5--5--5--5--5--5--|

--------------------|------------------------|------------------------|
--------------------|------------------------|------------------------|
--------------------|------------------------|------------------------|
--7--7--9--7--6--4--|--2--2-2-2-2-2--2-2-2-2-|--2--2-2-2-2-2--2-2-2-2-|
--x--x--x--x--x--x--|--2--2-2-2-2-2--2-2-2-2-|--2--2-2-2-2-2--2-2-2-2-|
--5--5--7--5--4--2--|--0--0-0-0-0-0--0-0-0-0-|--0--0-0-0-0-0--0-0-0-0-|
                                                       PM PM PM PM     
------------------------|------------------------|--------------------|
------------------------|------------------------|--------------------|
------------------------|------------------------|--6-----------------|
--6--6-6-6-6-6--6-6-6-6-|--6--6-6-6-6-6--6-6-6-6-|--6--6--6--6--6--6--|
--6--6-6-6-6-6--6-6-6-6-|--6--6-6-6-6-6--6-6-6-6-|--4--4--4--4--4--4--|
--4--4-4-4-4-4--4-4-4-4-|--4--4-4-4-4-4--4-4-4-4-|--------------------|

                       PM PM PM PM PM                            
--------------------|--------------------|--------------------|
--------------------|--------------------|--------------------|
--6--6--6--6--6--6--|--------------------|--------------------|
--6--6--6--6--6--6--|--------------------|--7--7--7--6--6--6--|
--4--4--4--4--4--4--|--7--7--7--7--7--7--|--7--7--7--7--7--7--|
--------------------|--5--5--5--5--5--5--|--5--5--5--4--4--4--|

------------------------|------------------------|------------------------|
------------------------|------------------------|------------------------|
------------------------|------------------------|--4--4-4-4-4-4--4-4-4-4-|
--4--4-4-4-4-4--4-4-4-4-|--4--4-4-4-4-4--4-4-4-4-|--4--4-4-4-4-4--4-4-4-4-|
--4--4-4-4-4-4--4-4-4-4-|--4--4-4-4-4-4--4-4-4-4-|--2--2-2-2-2-2--2-2-2-2-|
--2--2-2-2-2-2--2-2-2-2-|--2--2-2-2-2-2--2-2-2-2-|------------------------|
 
------------------------|------------------------|------------------------|
------------------------|------------------------|------------------------|
--4--4-4-4-4-4--4-4-4-4-|------------------------|------------------------|
--4--4-4-4-4-4--4-4-4-4-|--4--4-4-4-4-4--4-4-4-4-|--4--4-4-4-4-4--4-4-4-4-|
--2--2-2-2-2-2--2-2-2-2-|--4--4-4-4-4-4--4-4-4-4-|--4--4-4-4-4-4--4-4-4-4-|
------------------------|--2--2-2-2-2-2--2-2-2-2-|--2--2-2-2-2-2--2-2-2-2-|
 
------------------------|------------------------|
------------------------|------------------------|
------------------------|------------------------|
--7--7-7-7-7-7--7-7-7-7-|--9--9-9-9-9-9--9-9-9-9-|
--7--7-7-7-7-7--7-7-7-7-|--9--9-9-9-9-9--9-9-9-9-|
--5--5-5-5-5-5--5-5-5-5-|--7--7-7-7-7-7--7-7-7-7-|


PP:
    D                  F#m
y asi cierro un ciclo amor,
               Bm
necesito un favor,
                 Gsus4 G7m
un poco mas de medicina,
                          Em
pues nunca entendi la manera
              A 
para poder evitar,
                           Em
sentir que me rompen las piernas
          Gsus4   A 
cuando no estas
R2D2:
|------------------------|
|------------------------|
|------------------------|
|--2--2-2-2-2-2--2-2-2-2-|
|--2--2-2-2-2-2--2-2-2-2-|
|--0--0-0-0-0-0--0-0-0-0-|

------------------------|------------------------|------------------------|
------------------------|------------------------|------------------------|
------------------------|------------------------|------------------------|
--2--2-2-2-2-2--2-2-2-2-|--6--6-6-6-6-6--6-6-6-6-|--6--6-6-6-6-6--6-6-6-6-|
--2--2-2-2-2-2--2-2-2-2-|--6--6-6-6-6-6--6-6-6-6-|--6--6-6-6-6-6--6-6-6-6-|
--0--0-0-0-0-0--0-0-0-0-|--4--4-4-4-4-4--4-4-4-4-|--4--4-4-4-4-4--4-4-4-4-|

     PM PM PM PM                            PM PM PM PM PM     
--------------------|--------------------|--------------------|
--------------------|--------------------|--------------------|
--6-----------------|--6--6--6--6--6--6--|--------------------|
--6--6--6--6--6--6--|--6--6--6--6--6--6--|--------------------|
--4--4--4--4--4--4--|--4--4--4--4--4--4--|--7--7--7--7--7--7--|
--------------------|--------------------|--5--5--5--5--5--5--|

--------------------|------------------------|------------------------|
--------------------|------------------------|------------------------|
--------------------|------------------------|------------------------|
--7--7--7--6--6--6--|--4--4-4-4-4-4--4-4-4-4-|--4--4-4-4-4-4--4-4-4-4-|
--7--7--7--7--7--7--|--4--4-4-4-4-4--4-4-4-4-|--4--4-4-4-4-4--4-4-4-4-|
--5--5--5--4--4--4--|--2--2-2-2-2-2--2-2-2-2-|--2--2-2-2-2-2--2-2-2-2-|

------------------------|------------------------|------------------------|
------------------------|------------------------|------------------------|
--4--4-4-4-4-4--4-4-4-4-|--4--4-4-4-4-4--4-4-4-4-|------------------------|
--4--4-4-4-4-4--4-4-4-4-|--4--4-4-4-4-4--4-4-4-4-|--4--4-4-4-4-4--4-4-4-4-|
--2--2-2-2-2-2--2-2-2-2-|--2--2-2-2-2-2--2-2-2-2-|--4--4-4-4-4-4--4-4-4-4-|
------------------------|------------------------|--2--2-2-2-2-2--2-2-2-2-|
 
------------------------|------------------------|------------------------|
------------------------|------------------------|------------------------|
------------------------|------------------------|------------------------|
--4--4-4-4-4-4--4-4-4-4-|--7--7-7-7-7-7--7-7-7-7-|--9--9-9-9-9-9--9-9-9-9-|
--4--4-4-4-4-4--4-4-4-4-|--7--7-7-7-7-7--7-7-7-7-|--9--9-9-9-9-9--9-9-9-9-|
--2--2-2-2-2-2--2-2-2-2-|--5--5-5-5-5-5--5-5-5-5-|--7--7-7-7-7-7--7-7-7-7-|
                      
--------------------|
--------------------|
--------------------|
--7-----------------|
--7--DEJENLO SONAR--|
--5-----------------|

BREAK
PP:
 Gsus4        A 
y me haria feliz
            D
que mi cantar
   Bm       Gsus4          A 
te haga sentir muy especial
         D
que mi cantar
    Bm           Em
te pueda dar placer
                   F#m
y asi juntos envejecer
 F#m-Bm-A    Gsus4
mas no pude hacerte feliz
A               D    F#m - Bm -  Gsus4
ya decidi partir


Gsus4 G7m    Em
vamos a continuar
                A 
con alegría y felicidad
              Em
vamos a continuar
               Gsus4
con nuestra aflicción
A              D
nuestra aflicción...

SOLO
PP TOCA: D,F#m,Bm,Gsus4 X4 Y ACABA EN D

R2D2:
simbologia:
br: Bend release
b:bend
\:slide
pbr pre-bend release

---------------|---------------|----------------------|---------------------------|
---------------|---------------|--7----7-7s-9----9-9s-|--10----10-10s-12----12-12-|
---------------|---------------|--9----9-9--9----9-9--|---9-----9--9---9-----9--9-|
---------------|---------------|----------------------|---------------------------|
---------------|---------------|----------------------|---------------------------|
---------------|---------------|----------------------|---------------------------|

 
--------------------------|------------------------|--------------------------|
--14----14-12-12----12-10-|--9--9--9h--10--9h--10--|--14--16b~----16----------|
--14----14--9--9-----9--9-|--9--9--9----9--9----9--|--14--------------16------|
--------------------------|------------------------|----------------------18--|
--------------------------|------------------------|--------------------------|
--------------------------|------------------------|--------------------------|


-------------------------|--------------------------|--------------------------|
-----16b~----16----------|-----16b~----16-----------|-----16b~----16-----------|
-----------------16------|-----------------16-------|-----------------16-------|
---------------------18--|--------------------------|--------------------------|
-------------------------|---------------------18~--|---------------------18~--|
-------------------------|--------------------------|--------------------------|



----------------------|---------------------------|------------------------|
--7----7-7s-9----9-9s-|--10----10-10s-12----12-12-|--12----12-10-9----9----|
--9----9-9--9----9-9--|---9-----9--9---9-----9--9-|---------------------11-|
----------------------|---------------------------|------------------------|
----------------------|---------------------------|------------------------|
----------------------|---------------------------|------------------------|


                         aqui es con bend pero me gusta como se oye asi
-----------------------|--------------------------|--------------------------|
-----------------------|-----19--21--19--17-------|-----19--21--19--17-------|
--9----9---------------|---------------------16~--|---------------------16~--|
---------11-9--9--11~--|--------------------------|--------------------------|
-----------------------|--------------------------|--------------------------|
-----------------------|--------------------------|--------------------------|

--------------------------|--------------------------|-----------------------|
-----19--21--19--17-------|-----19--21--19--17-------|-----------------------|
--------------------------|--------------------------|-----------------------|
---------------------18~--|---------------------18~--|--18----18s--16----18--|
--------------------------|--------------------------|-----------------------|
--------------------------|--------------------------|-----------------------|


----------------------|-------------------16-|--19--------------------|
----------------------|----------------17----|--------17--------------|
--16------------------|----------------------|-----------16-9~----9\--|
--------18--14----14--|--13----14------------|------------------------|
----------------------|----------------------|------------------------|
----------------------|----------------------|------------------------|

-------------------------|-------------------------|-------------------------|
-----16b~----16----------|-----16b~----16----------|-----16b~----16----------|
-----------------16------|-----------------16------|-----------------16------|
---------------------18--|---------------------18--|-------------------------|
-------------------------|-------------------------|---------------------18--|
-------------------------|-------------------------|-------------------------|


-------------------------|----------------------|----------------------------|
-----16b~----16----------|--17----16--17----16--|--17----16--17--------------|
-----------------16------|----------------------|----------------------16-18-|
-------------------------|----------------------|----------------16-18-------|
--L------------------18--|----------------------|----------------------------|
-------------------------|----------------------|----------------------------|
        
----------------------|------------------------|-----------------|---------------|
--17----16--17----16--|--19pbr-----------19-17-|-----------------|---------------|
----------------------|------------------------|--16~------------|---------------|
----------------------|------------------------|-----------------|---------------|
----------------------|------------------------|-----------------|---------------|
----------------------|------------------------|-----------------|--------------
            
Submit corrections

comments powered by Disqus
↑ Back to top | Panda Tabs for Nuestra Afliccion. Lyrics for acoustic guitar and electric guitar. Tablatures and chords are parodies/interpretations of the original songs. You may use it for private study, scholarship, research or language learning purposes only