» » »

Nuestra Afliccion Tabs

Artists:  A B C D E F G H I J K L M N O P Q R S T U V W X Y Z # 

Nuestra Afliccion Tabs

(ver. 1)
Panda Tabs
 Rating:
4/5 (4 votes)
    Nuestra Afliccion lessons Tabs too difficult? Try these video lessons and learn fast
                Bueno gente aqui le dejo el tema nuestra aflicción del disco poetics de panda
en afinacion standard

 cuanto...cuanto se necesita
   D#                 Gm
e|-------------------------------------|
B|-8-----------------------------------|
G|-8-----------------------------------|
D|-8------------------5----------------|
A|-6------------------5----------------|
E|--------------------3----------------|


para ya resolver destruir.. este dilema
         Cm                       Fm
e|-------------------------------------|
B|-------4-----------------------------|
G|-------5-----------------------------|
D|-------5------------------------3----|
A|-------3------------------------3----|
E|--------------------------------1----|

que me tortura en las noches
                      A#
e|-------------------------------------|
B|---------------------3---------------|
G|---------------------3---------------|
D|---------------------3---------------|
A|---------------------1---------------|
E|-------------------------------------|

no me deja soñar amplifica mis temores
e|-------------------------------------|
B|-----------8-------------------------|
G|-----------8-------------------------|
D|-----------8--------------------5----|
A|-----------6--------------------5----|
E|--------------------------------3----|

  ciclo cabal.... aaal
e|--------------------------------------|
B|-----------------3--------------------|
G|-----------------3--------------------|
D|--------3--------3--------------------|
A|--------3--------1--------------------|
E|--------1-----------------------------|

encerre y acabe con mis sueños
e|-------------------------------------|
B|-8-----------------------------------|
G|-8-----------------------------------|
D|-8------------------5----------------|
A|-6------------------5----------------|
E|--------------------3----------------|

y la llave arroje para que los necesito
e|-------------------------------------|
B|-------4-----------------------------|
G|-------5-----------------------------|
D|-------5------------------------3----|
A|-------3------------------------3----|
E|--------------------------------1----|

  solo me causan angustia   me hace
e|-------------------------------------|
B|---------------------3---------------|
G|---------------------3---------------|
D|---------------------3---------------|
A|---------------------1---------------|
E|-------------------------------------|

 falta un plan  me hace falta astucia
e|-------------------------------------|
B|-----------8-------------------------|
G|-----------8-------------------------|
D|-----------8--------------------5----|
A|-----------6--------------------5----|
E|--------------------------------3----|


y paz mental .... aaal
e|--------------------------------------|
B|-----------------3--------------------|
G|-----------------3--------------------|
D|--------3--------3--------------------|
A|--------3--------1--------------------|
E|--------1-----------------------------|


entiendo..el rechazo del mundo   tu
e|-------------------------------------|
B|-8-----------------------------------|
G|-8-----------------------------------|
D|-8----------------------5------------|
A|-6----------------------5------------|
E|------------------------3------------|


repudio amor no es igual si no conociera
e|-------------------------------------|
B|-------4-----------------------------|
G|-------5-----------------------------|
D|-------5------------------------3----|
A|-------3------------------------3----|
E|--------------------------------1----|

tal vez voltearia mi cara    tal vez
e|-------------------------------------|
B|---------------------3---------------|
G|---------------------3---------------|
D|---------------------3---------------|
A|---------------------1---------------|
E|-------------------------------------|

sentiria lastima dicen que el amor mancha
e|-------------------------------------|
B|-----------8-------------------------|
G|-----------8-------------------------|
D|-----------8--------------------5----|
A|-----------6--------------------5----|
E|--------------------------------3----|

y ya me ensucie eoee
e|--------------------------------------|
B|-----------------3--------------------|
G|-----------------3--------------------|
D|--------3--------3--------------------|
A|--------3--------1--------------------|
E|--------1-----------------------------|


CORO

parece........ si parece.... o no no...que lo mucho...
e|-------------------------------------------------------|
B|-------------------------------------------------------|
G|-888888888888---------------555555555555--------333333-|
D|-888888888888-555555555555--555555555555-333333-333333-|
A|-666666666666-555555555555--333333333333-333333-111111-|
E|--------------333333333333---------------111111--------|

por eso........ por eso....me afronté y dejare....
e|-------------------------------------------------------|
B|-------------------------------------------------------|
G|-888888888888---------------555555555555--------333333-|
D|-888888888888-555555555555--555555555555-333333-333333-|
A|-666666666666-555555555555--333333333333-333333-111111-|
E|--------------333333333333---------------111111--------|

mas farsas no lo puedo evitar sentir... cuando no estas...
e|--------------------------------------------------------|
B|--------------------------------------------------------|
G|----------------333333333333-55555555555---------333333-|
D|--555555555555--333333333333-55555555553-333333--333333-|
A|--555555555555--111111111111-33333333333-333333--111111-|
E|--333333333333---------------------------111111---------|


y asi cierro....amor .necesito..     pues nunca entendi
e|-------------------------------------------------------|
B|-------------------------------------------------------|
G|-888888888888---------------555555555555--------333333-|
D|-888888888888-555555555555--555555555555-333333-333333-|
A|-666666666666-555555555555--333333333333-333333-111111-|
E|--------------333333333333---------------111111--------|

la manera para poder evitar... sentir.. cuando no estas...
e|--------------------------------------------------------|
B|--------------------------------------------------------|
G|----------------333333333333-55555555555---------333333-|
D|--555555555555--333333333333-55555555553-333333--333333-|
A|--555555555555--111111111111-33333333333-333333--111111-|
E|--333333333333---------------------------111111---------|

y me haria feliz  que mi cantar
e|-------------------------------------|
B|-8-----------------------------------|
G|-8-----------------------------------|
D|-8----------------------5------------|
A|-6----------------------5------------|
E|------------------------3------------|

      te haga    sentir muy especial
e|--------------------------------------|
B|-------4------------------3-----------|
G|-------5------------------3-----------|
D|-------5---------3--------3-----------|
A|-------3---------3--------1-----------|
E|-----------------1--------------------|

que mi cantar te pueda dar placer asi justos envejecer
e|----------------------------------------------------|
B|----8-------------------444444444444----------------|
G|----8-------------------555555555555---------333333-|
D|----8------5------------555555555555-3333333-333333-|
A|----6------5------------333333333333-3333333-111111-|
E|-----------3-------------------------1111111--------|

mas no pude hacerte feliz ya decidi
e|--------------------------------|
B|-444444444444------------333333-|
G|-555555555555------------333333-|
D|-555555555555---3333333--333333-|
A|-333333333333---3333333--111111-|
E|----------------1111111---------|

partir....
e|-------------------------------------------------------|
B|-888888888888---------------444444444444--------333333-|
G|-888888888888---------------555555555555--------333333-|
D|-888888888888-555555555555--555555555555-333333-333333-|
A|-666666666666-555555555555--333333333333-333333-111111-|
E|--------------333333333333---------------111111--------|


vamos.....   y felicidad..a continuar...nuestra aflicción
e|---------------------------------------------------------|
B|-888888888888---------------444444444444--------333333-8-|
G|-888888888888---------------555555555555--------333333-8-|
D|-888888888888-555555555555--555555555555-333333-333333-8-|
A|-666666666666-555555555555--333333333333-333333-111111-6-|
E|--------------333333333333---------------111111----------|

PARTE FINAL
              woooow oooo oooo      wooow oooo oooo
e|----------------------------------------------------------------------|
B|----------------------------------------------------------------------|
G|8888-8888-8888-8888---------------------5555-5555-5555-5555------3333-|
D|8888-8888-8888-8888-5555-5555-5555-5555-5555-5555-5555-5555-3333-3333-|
A|6666-6666-6666-6666-5555-5555-5555-5555-3333-3333-3333-3333-3333-1111-|
E|--------------------3333-3333-3333-3333---------------------1111------|

               woooow oooo oooo      wooow oooo oooo
e|----------------------------------------------------------------------|
B|----------------------------------------------------------------------|
G|8888-8888-8888-8888---------------------5555-5555-5555-5555------3333-|
D|8888-8888-8888-8888-5555-5555-5555-5555-5555-5555-5555-5555-3333-3333-|
A|6666-6666-6666-6666-5555-5555-5555-5555-3333-3333-3333-3333-3333-1111-|
E|--------------------3333-3333-3333-3333---------------------1111------|


Riff de la guitarra  Con wah-wah y delay
SE TOCA SOBRE LA PARTE FINAL

e|-----6-7-10-7-10-11-7-6-7~~~~~~~~~~~~-|
B|-6H8----------------------------------| una sola vez
G|--------------------------------------|
D|--------------------------------------|
A|--------------------------------------|
E|--------------------------------------|
    (se repite )  (solo en la ultima vuelta)
e|-10h11-10-7-6---10-10-10-10~~~11-11~~~~7~~~6-6~~~--| SE REPITE
B|---------------------------------------------------| VARIAS
G|---------------------------------------------------| VECES HASTA
D|---------------------------------------------------| EL FINAL
A|---------------------------------------------------|
E|---------------------------------------------------|

D2A6 LA BANDA QUE ROMPE MADRES EN PUERTO LA CRUZ...
SALUDOS A TODA GENTE DE VENEZUELA....
            
Submit corrections

↑ Back to top | Panda Tabs for Nuestra Afliccion. Lyrics for acoustic guitar and electric guitar. Tablatures and chords are parodies/interpretations of the original songs. You may use it for private study, scholarship, research or language learning purposes only