» » »

Panda, Mi Munecamy Doll Tabs (ver.1)

Artists:  A B C D E F G H I J K L M N O P Q R S T U V W X Y Z # 

Mi Munecamy Doll Tabs (ver.1)

Panda Tabs
Rating:
0/5 (0 votes)
Mi Munecamy Doll lessons Tabs too difficult? Try these video lessons and learn fast
                Intro Acoustic

Hey My friends, this is a really cool song, lttle taste of mexicans bands!
Check it out!
|---------------------0-1-0-------------------------|
|-1----3--1--1-----3----------3--1------1h3--1-0----|
|---0-----------0-----------------------------------| x2
|---------------------------------------------------|
|-3-------------------------------------------------|
|------------3----------------------1---------------|


Distorted
Guitar 1
|-----------------------------------------|
|-----------------------------------------|
|-4444------------------------------------| x4
|-4444--4444--6666--2222------------------| 
|-2222--4444--6666--2222------------------|
|-------2222--4444--0000------------------|


Guitar 2

|------------1-0-1------------------------|
|-1-3-1---3---------3--1---3-1-0----------|
|-----------------------------------------| x4
|-----------------------------------------|
|-----------------------------------------|
|-----------------------------------------|


Guitar 3

|---------7-8-----------------------------|
|--5-6-8-------8-6-5----------------------|
|-----------------------------------------| x4
|-----------------------------------------|
|-----------------------------------------|
|-----------------------------------------|

Tone change
|-----------------------------------------|
|-----------------------------------------|
|-7777--------4444------------------------| x2
|-7777--7777--4444--5555------------------| 
|-5555--7777--2222--5555------------------|
|-------5555--------3333------------------|
Necesitas un abrigo...


|-----------------------------------------|
|-----------------------------------------|
|-4444------------------------------------| x4
|-4444--4444--6666--2222------------------| 
|-2222--4444--6666--2222------------------|
|-------2222--4444--0000------------------|
Mi Muñeca esta llorando...

Then..

Guitar 2

|------------1-0-1------------------------|
|-1-3-1---3---------3--1---3-1-0----------|
|-----------------------------------------| x2
|-----------------------------------------|
|-----------------------------------------|
|-----------------------------------------|


Guitar 3

|---------7-8-----------------------------|
|--5-6-8-------8-6-5----------------------|
|-----------------------------------------| x2
|-----------------------------------------|
|-----------------------------------------|
|-----------------------------------------|


|-----------------------------------------|
|-----------------------------------------|
|-7777--------4444------------------------| x2
|-7777--7777--4444--5555------------------| 
|-5555--7777--2222--5555------------------|
|-------5555--------3333------------------|
Mi Muñeca...



Solo Part

|---------------------------------------------------------------------------|
|-/7-10---7--5-----5/7-5-----/7-10---7-5---5-7--11-11-10--8-----------------|
|-------9------7-7-----------------9-----7----------------------------------|
|---------------------------------------------------------------------------|
|---------------------------------------------------------------------------|
|---------------------------------------------------------------------------|

Still solo

|---------------------------------------------------------------------------|
|-/7-10---7-5----5-7--11-11-14--------13-14--------13-14-------13-14--------|
|-------9-----7-----------------12-10--------12-10-------12-10--------------|
|---------------------------------------------------------------------------|
|---------------------------------------------------------------------------|
|---------------------------------------------------------------------------|


Still f**kin solo

|-------11-11-11-11/9-9-9---------------------------------------------------|
|--12-----------------------------------------------------------------------|
|---------------------------------------------------------------------------|
|---------------------------------------------------------------------------|
|---------------------------------------------------------------------------|
|---------------------------------------------------------------------------|


Outro.

This is it My friends Its my first tab so maybe the tab has mistakes. Saludos desde mexico putos!
            

comments powered by Disqus
↑ Back to top | Panda Tabs for Mi Munecamy Doll. Lyrics for acoustic guitar and electric guitar. Tablatures and chords are parodies/interpretations of the original songs. You may use it for private study, scholarship, research or language learning purposes only