>
 >
Mi Huracan Llevaba Tu Nombre

Mi Huracan Llevaba Tu Nombre Guitar Tabs

Panda - Mi Huracan Llevaba Tu Nombre chords, tabs, tablatures, lyrics

Guitar lessons | Add/correct | Request | Top 50 tabs Artists:  A B C D E F G H I J K L M N O P Q R S T U V W X Y Z 0-9

Mi Huracan Llevaba Tu Nombre Guitar Tabs – Panda

CD, Sheet music, Poster

Do you like Mi Huracan Llevaba Tu Nombre? Share with your friends now
Bass TabsTabs

aver aki esta finalmente la q me han estado pidiendo, todas las rolas nuevas de panda
esnta afinadas asi pero no todas a webo se nececitan desafinar. en esta si la van a
tener q desafinar pa q ls kede bn perra. ay se ven.

Tuning: 1/2 tono abajo (Eb,Ab,Db,Gb,Bb,Eb)
intro:
e|-------------------------------------------------------------------------------------------------|
B|-------------------------------------------------------------------------------------------------|
G|16-16-16-x-16-16-16-x-16-16-16-x-15/16/15/-11-13-13-13-x-13-13-13-x-13-13-13-x-11/13/11/8-9-9-9-x|
D|-x-x--x--x-x--x--x--x--x-x--x--x-x--x--x---x--x--x--x--x-x--x--x--x-x--x--x--x-x--x--x--x-x-x-x-x|
A|14-14-14-x-14-14-14-x-14-14-14-x-13/14/13/-9--11-11-11-x-11-11-11-x-11-11-11-x-9/11/-9/-6-7-7-7-x|
E|-------------------------------------------------------------------------------------------------|
cont:
e|---------------------------------------------------------------------------|
B|---------------------------------------------------------------------------|
G|9-9-9-x-8-8-8-x-9-9-9-x-15-15-15-x-15-15-15-15/18-18/16/15-16/15-11--------|
D|x-x-x-x-x-x-x-x-x-x-x-x-x--x--x--x-x--x--x--x--x--x---x-x--x--x--x---------|
A|7-7-7-x-6-6-6-x-7-7-7-x-13-13-13-x-13-13-13-13/16-16/14/13-14/13-9---------|
E|---------------------------------------------------------------------------|
verso
e|---------------------------------------------------------------------------|
B|---------------------------------------------------------------------------|
G|--------------------------------------------------6---6------6---6---------|
D|-----6---6------6---6-------9---9------9---9-6666-6-6-6-6666-6-6-6--44444--|
A|6666-6-6-6-6666-6-6-6--9999-9-9-9-9999-9-9-9-4444-4-4-4-4444-4-4-4--44444--|
E|4444-4-4-4-4444-4-4-4/-7777-7-7-7-7777-7-7-7------------------------22222--|
pm..................................................................
pre coro:
e|---------------------------------------------------------------------------|
B|---------------------------------------------------------------------------|
G|9-9/11-11/13-13/-----------------------------------------------------------|
D|x-x-x--x--x--x----4444-----------------------------------------------------|
A|7-7/9--9/-11-11/--4444-----------------------------------------------------|
E|------------------2222-----------------------------------------------------|
                    ....
coro:
e|---------------------------------------------------------------------------|
B|---------------------------------------------------------------------------|
G|-----4---4-----------------6---6-------------------------------------------|(x2)
D|4444-4-4-4------2---2-6666-6-6-6------4---4--------------------------------|
A|2222-2-2-2-2222-2-2-2-4444-4-4-4-4444-4-4-4--------------------------------|
E|-----------0000-0-0-0------------2222-2-2-2--------------------------------|
  ....   .   ....   .   ....   .   ....   .  
e|---------------------------------------------------------------------------|
B|---------------------------------------------------------------------------|
G|44444-------66666----------------------------------------------------------|
D|44444--2222-66666-44444----------------------------------------------------|
A|22222--2222-44444-44444----------------------------------------------------|
E|-------0000-------22222----------------------------------------------------|
si keires saver...

intro(x1)
verso(x1)
precoro(x1)
coro(x1)
e|---------------------------------------------------------------------------|
B|---------------------------------------------------------------------------|
G|9-9/11-11/13-13/15--15/----------------------------------------------------|
D|x-x-x--x--x--x--x----x-----------------------------------------------------|(x2)
A|7-7/9--9/-11-11/13--13/----------------------------------------------------|
E|---------------------------------------------------------------------------|
te prometo me va a encantar
cont:
e|---------------------------------------------------------------------------|
B|---------------------------------------------------------------------------|
G|9999-999-999-6666----------------------------------------------------------|
D|9999-999-999-6666-4444-----------------------------------------------------|(x2)
A|7777-666-777-4444-4444-----------------------------------------------------|
E|------------------2222-----------------------------------------------------|
coro:
e|---------------------------------------------------------------------------|
B|---------------------------------------------------------------------------|
G|66666--------88888---------------------------------------------------------|
D|66666-444444-88888-666666--------------------------------------------------|
A|44444-444444-66666-666666--------------------------------------------------|(x4)
E|------222222-------444444--------------------------------------------------|
acaba en:
e|-----------------------------------------------------------------------------|
B|-----------------------------------------------------------------------------|
G|-----------------------------------------------------------------------------|
D|8*---------------------------------------------------------------------------|
A|8*---------------------------------------------------------------------------|
E|6*---------------------------------------------------------------------------|





Comments


Popular Panda tabs & chords
Oro Bass Tabs
Amnistia Chords
Cita En El Quirofano 1 Chords
Espiritu Pionero 1 Chords
Nuestra Afliccion 1 Chords
Espejismos Y Visiones Tabs
Mi Muneca Intro Tabs
Nunca Nadie Nos Podra Parar Tabs
Quisiera No Pensar 1 Tabs
So Violento So Macabro Ukulele


Song lyrics



↑ Back to top | Tablatures and chords are parodies/interpretations of the original songs. You may use it for private study, scholarship, research or language learning purposes only
© 2014 AZChords.com Contact us | Privacy policy | DMCA | Add/correct tabs | Request tabs | Top 50 tabs