>
 >
Matando Memorias

Matando Memorias Guitar Tabs

Panda - Matando Memorias chords, tabs, tablatures, lyrics

Guitar lessons | Add/correct | Request | Top 50 tabs Artists:  A B C D E F G H I J K L M N O P Q R S T U V W X Y Z 0-9

Matando Memorias Guitar Tabs – Panda

CD, Sheet music, Poster

Do you like Matando Memorias? Share with your friends now
Tabs
este es mi primer tab :S , no estoy muy seguro de que el final este
completamente correcto asi que si alguien la puede corregir manden un
mensaje a mi perfil (esta afinada en standard)

INTRO:


E -------2-     ------2-     -------2-     ------2-     -------0-
B ---3---3-     --3---3-     ---3---3-     --3---3-     ---2---2-
G ---2----- x 4 --2----- x 4 ---0----- x 4 --2----- x 4 ---2----- x 4
D -0---0---     --------     -2---2---     --------     ---------
A ---------     --------     ---------     --------     -0---0---
E ---------     -3--3---     ---------     -3--3---     ---------

el intro se repite dos veces

Verso:

Es tocado por dos guitarras, la segunda comienza cuando la chica dice: "ay
si los tienes solo que lo niegas" a eso del minuto 1:03, tambien en ese
momento comienza el punteo rapido (no se cual es el termino correcto :P)

Guitarra 1
E ---------------------------------------------------------------|
B ---------------------------------------------------------------|
G ------0---------2---------0---------2---------0---------2------|
D ----4---4-----4---4-----4---4-----4---4-----4---4-----4---4----|
A --5---------5---------0---------0------------------------------|
E ------------------------------------------3---------3----------|

E -----------------------|
B -----------------------|
G -----------------------|
D ----2-----------4------|
A --------------5---5----|
E --0----0--2-3----------|

el punteo rapido es practicamente lo mismo k el primer grupo k ven ahi
pero el final cambia y se parece poco al k esta encima de este texto:

E ----------------------------------------------------------|
B ----------------------------------------------------------|
G ------0--------2--------0--------2--------0--------2------|
D ----4---4----4---4----4---4----4---4----4---4----4---4----|
A --5--------5--------5--------5--------0--------0----------|
E ----------------------------------------------------------|

E ----------------------------------------------------------|
B ----------------------------------------------------------|
G ------0--------2--------0--------2--------0--------2------|
D ----4---4----4---4----4---4----4---4----4---4----4---4----|
A --0--------0----------------------------------------------|
E --------------------3--------3--------3--------3----------|


E -------------------------|
B -------------------------|
G -------------------------|
D ----2--2--2---------4----|
A ------------------5---5--|
E --0--0--0---2-3----------|


hay k repetir el verso (parte 1 y 2) 2 veces antes de cambiar al punteo
rapido, no se olviden, el punteo rapido comienza al mismo tiempo k la chica
dice: "ay si los tienes solo que lo niegas" la guitarra 2 toca esto tambien
apartir de esa frase:


E -------------------------------|
B --7-8-8-7-7---8-8-7-7-5-5-7----|
G -------------------------------| x 4
D -------------------------------|
A -------------------------------|
E -------------------------------|

E -------------------------------|
B --7-8-8-7-7---8-8-7-7-10-10-7--|
G -------------------------------| x 4
D -------------------------------|
A -------------------------------|
E -------------------------------|


Coro:

          D                 |     Bm
Y ahora tomo para mantenerme|tibio y asi poder
          Em                 |   G   |  A
asesinar las memorias y ya no|en ella|pensar
          D                  |    Bm
si es imposible para mi poder|sentirme mejor
          Em                         |  G  |  A
como esperar que algun dia alguien me|pueda|importar

2do Verso:

Se podria decir que hay k repetir todo excepto el intro pero... no seria
correcto -.- ya k hay ligeros cambios en el final de los punteos


E ---------------------------------------------------------------|
B ---------------------------------------------------------------|
G ------0---------2---------0---------2---------0---------2------|
D ----4---4-----4---4-----4---4-----4---4-----4---4-----4---4----|
A --5---------5---------0---------0------------------------------|
E ------------------------------------------3---------3----------|


E -----------------------|
B -----------------------|
G -----------------------|
D ----2----------4---4---|
A -----------------------|
E --0----0--2-3----3-----|


En este punteo ambas veces son diferentes, obviamente se acompaņa
con la guitarra 2 pero esta no cambia nada:


E ----------------------------------------------------------|
B ----------------------------------------------------------|
G ------0--------2--------0--------2--------0--------2------|
D ----4---4----4---4----4---4----4---4----4---4----4---4----|
A --5--------5--------5--------5--------0--------0----------|
E ----------------------------------------------------------|

E ----------------------------------------------------------|
B ----------------------------------------------------------|
G ------0--------2--------0--------2--------0--------2------|
D ----4---4----4---4----4---4----4---4----4---4----4---4----|
A --0--------0----------------------------------------------|
E --------------------3--------3--------3--------3----------|

E----------------------------|
B ---------------------------|
G ---------------------------|   (no me siento muy seguro
D ----2--2--2-------4---4----|      en lo de la 1ra linea)
A ---------------------------|
E --0--0--0---2-------3---3--|

Se vuelve a tocar pero aca es la diferencia:

E ----------------------------------------------------------|
B ----------------------------------------------------------|
G ------0--------2--------0--------2--------0--------2------|
D ----4---4----4---4----4---4----4---4----4---4----4---4----|
A --5--------5--------5--------5--------0--------0----------|
E ----------------------------------------------------------|

E ----------------------------------------------------------|
B ----------------------------------------------------------|
G ------0--------2--------0--------0--------0--------2------|
D ----4---4----4---4----4---4----4---4----4---4----4---4----|
A --0--------0----------------------------------------------|
E --------------------3--------3--------3--------3----------|

E ----------------------------|
B ----------------------------|
G ----------------------------| la vieron? en la G de ahi arriba :O
D ----2--2--2--------4---4----|
A ----------------------------|
E --0--0--0---2-3------3---3--|

Coro:

repitanlo

Final:


En esta parte puede k falle un poco dependiendo de la afinacion, es lo
mismo k el intro pero solo se tocan las 2 primeras cuerdas de abajo:

E ---------------------------------------------------------|
B -------3--------3--------3-------3--------3---------3----|
G -------2--------2--------2-------2--------0---------0----|
D --0-0----0-0-0----0------------------3-3-----3-3-3----3--|
A ---------------------------------------------------------|
E --------------------3-3----3-3-3---3---------------------|


E -----------------------------------|
B -------3--------3------2--------2--|
G -------2--------2------2--------2--|
D -----------------------------------|
A ------------------0-0----0-0-0-----|
E --3-3----3-3-3---------------------|


Coro:
acabar con un G largo:

         Em|  G| A
         G.........

me contento con 4 estrellas ;)





Comments


Popular Panda tabs & chords
Adheridos Separados Chords
Cuando No Es Como Deberia Ser Chords
Que Tu Cama Sea Mi Hogar Chords
Mi Muneca Intro Tabs
Miedo A Las Alturas 1 Tabs
Pathetica 4 Tabs
Popurri Para Ti Tabs
Si Supieras Tabs
Solo A Terceros 1 Tabs
Los Malaventurados No Lloran Ukulele


Song lyrics



↑ Back to top | Tablatures and chords are parodies/interpretations of the original songs. You may use it for private study, scholarship, research or language learning purposes only
© 2014 AZChords.com Contact us | Privacy policy | DMCA | Add/correct tabs | Request tabs | Top 50 tabs