» » »

Mala Suerte Bass tabs (ver.1)

Artists:  A B C D E F G H I J K L M N O P Q R S T U V W X Y Z # 

Mala Suerte Bass tabs (ver.1)

Panda
Rating:
0/5 (0 votes)

Hard to play? Try these video lessons and learn fast.
                Ok, here is the intro, try playing it according to the rythim it has
   Bare in mind that this intro is almos 100% correct

G--------------------------------------------------------
D--------------------------------------------------------
A---2------------6------0-1-2---2--2-1---6------------8--
E-2---2--0-2-3-4---4--4-------2--------4---4--4-4-5-6--6-

  continued
G--------------------------------------------------------
D--------------------------------------------------------
A----------9-----9-----8-----6---------------------------
E--6-6-6-7---7-----7-6---6-4---4-2-0-2-------------------

  Verse, starts,, when he says, 'me enamore' (0:22)
G-----------------------------------------------------
D-----------------------------------------------------
A-----------------------------------------------------
E--222222222222--444444444444--7777777777--99999999---

G-----------------------------------------------------
D-----------------------------------------------------
A-----------------------------------------------------
E--66666666--77777777--666666--444444--2----0--2------

  Chorus ( 'y yo hago lo posible' )
G-------------------------------------------------------------------
D-------------------------------------------------------------------
A--22222222---------22222222--------22222222----------------44444444
E-----------22222222--------22222222--------2222222244444444--------

    Done!!!, Here is this way cool song that talks about lesbians
  Structure
  Verse   x 2
  Chorus  x 1
  Verse   x 2 ( play the verse part during the accordionn thing )
  Chorus  x 1 ( the las chorus is a little bit longer and ends in E--2 )
            
Hard to play? Try these video lessons and learn fast. | Correct




comments powered by Disqus
↑ Back to top | Tablatures and chords are parodies/interpretations of the original songs. You may use it for private study, scholarship, research or language learning purposes only