>
 >
Los Malventurados No Lloran

Los Malventurados No Lloran Guitar Tabs

Panda - Los Malventurados No Lloran chords, tabs, tablatures, lyrics

Guitar lessons | Add/correct | Request | Top 50 tabs Artists:  A B C D E F G H I J K L M N O P Q R S T U V W X Y Z 0-9

Los Malventurados No Lloran Guitar Tabs – Panda

CD, Sheet music, Poster

Do you like Los Malventurados No Lloran? Share with your friends now
TabsTabs v2
Los malaventurados no lloran

Intro
A   E   G#m
   C#m       B
e|------------------|
B|-5-----5---4----4-|
G|---6---------4----|
D|-----6---------4--|
A|------------------|
E|------------------|

Se que está en algún lugar mejor...
   A           E          G#m  C#m       B
e|-------------------------4---------------------|
B|-------------------------4---5-----5---4-----4-|
G|-----6-----------9-------4-----6---------4-----|
D|-------7-----------9-----6-------6---------4---|
A|---7-----7-----9-----9---6---------------------|
E|-5-----------7-----------4---------------------|

...encontrar el medio para yo...
   A           E          G#m  C#m       B
e|-----5-------------------4---------------------|
B|-------5---------9-------4---5-----5---4-----4-|
G|---------6---------9-----4-----6---------4-----|
D|---------------9-----9---6-------6---------4---|
A|---7---------7-----------6---------------------|
E|-5-----------------------4---------------------|

Pre-coro y coro
      A              E                    G#m
Que aquí todo está peor, que al igual que ella,
                 C#m
mi voluntad también murió
  B            A                  E
Le quiero platicar que todo sale mal,
                 G#m                 C#m    B
que yo la alcanzaría teniendo la oportunidad

Se repite el intro

Se que ella se siente mejor...
   A           E          G#m  C#m       B
e|-----5-------------------4---------------------|
B|-------5---------9-------4---5-----5---4-----4-|
G|---------6---------9-----4-----6---------4-----|x2
D|---------------9-----9---6-------6---------4---|
A|---7---------7-----------6---------------------|
E|-5-----------------------4---------------------|

Se repite el pre-coro y coro

me debería de acordar...
   A                     E       
e|-------------------------------------------|
B|-------------------------------------------|
G|-------------------------------------------|
D|---7---7-----7-----7-----2---2-----2-----2-|
A|---7---7-----7-----7-----2---2-----2-----2-|
E|-555---5---555---555---000---0---000---000-|
   ...   .   ...   ...   ...   .   ...   ...  
   F#m                   B
e|-------------------------------------------|
B|-------------------------------------------|
G|-------------------------4---4-----4-----4-|
D|---4---4-----4-----4-----4---4-----4-----4-|
A|---4---4-----4-----4---222---2---222---222-|
E|-222---2---222---222-----------------------|
   ...   .   ...   ...   ...   .   ...   ...  

La debería de odiar...
   A                     E       
e|-----------------------------------------|
B|-----------------------------------------|
G|-----------------------------------------|
D|---7----7----7----7-----2----2----2----2-|
A|---7----7----7----7-----2----2----2----2-|
E|-555---55---55---55---000---00---00---00-|
   ...   ..   ..   ..   ...   ..   ..   ..  
   
   F#m                   C#m                 B   A
e|-------------------------------------------------|
B|-------------------------------------------------|
G|-------------------------6---6-----6---6---4-----|
D|---4---4-----4-----4-----6---6-----6---6---4---7-|
A|---4---4-----4-----4---444---4---444---4---2---7-|
E|-222---2---222---222---------------------------5-|
   ...   .   ...   ...   ...   .   ...   .   .   .  

Solo
e|------------------------------------------|
B|------------------------------------------|
G|------------------------------------------|
D|---------6---7-9-13---11-13-14---13-14-13-|x2
A|-0---4-7----------------------------------|
E|------------------------------------------|

La segunda vez que se repite el solo la otra guitarra hace esto:
   A           E           A           C#m       B
e|-----5-------------------------------------------------|
B|-------5---------9-------------------5-----5---4-----4-|
G|---------6---------9---------6---------6---------4-----|
D|---------------9-----9---------7---------6---------4---|
A|---7---------7-------------7-----7---------------------|
E|-5-----------------------5-----------------------------|

       A                       E
Quiero encontrar el medio para yo
                 G#m                   C#m   B
poder hablar con ella, poder decirle a ella

Se vuelve a repetir el pre-coro y el coro

Final
   A                     E       
e|-------------------------------------|
B|-------------------------------------|
G|-------------------------------------|
D|---7---7-----7-----7-----2---2---222-|
A|---7---7-----7-----7-----2---2---222-|
E|-555---5---555---555---000---0---000-|
   ...   .   ...   ...   ...   .   ...  





Comments


Popular Panda tabs & chords
En El Vaticano Bass Tabs
Dime Otra Vez Chords
Martiro De Otro Chords
Atractivo Encontramos En Lo Mas Repugnante Tabs
Buen Dia 1 Tabs
Hola! 1 Tabs
Narcisista Por Excelencia Tabs
Pathetica 3 Tabs
Procedimientos Para Llegar A Un Comun Acuerdo 1 Tabs
Ya No Jalaba Ukulele


Song lyrics



↑ Back to top | Tablatures and chords are parodies/interpretations of the original songs. You may use it for private study, scholarship, research or language learning purposes only
© 2014 AZChords.com Contact us | Privacy policy | DMCA | Add/correct tabs | Request tabs | Top 50 tabs