>
 >
Los Malaventurados No Lloran 3

Los Malaventurados No Lloran 3 Guitar Tabs

Panda - Los Malaventurados No Lloran 3 chords, tabs, tablatures, lyrics

Guitar lessons | Add/correct | Request | Top 50 tabs Artists:  A B C D E F G H I J K L M N O P Q R S T U V W X Y Z 0-9

Los Malaventurados No Lloran 3 Guitar Tabs – Panda

CD, Sheet music, Poster

Do you like Los Malaventurados No Lloran 3? Share with your friends now
Bass TabsBass Tabs v2Bass Tabs v3ChordsTabsTabs v2Tabs v3Tabs v4Tabs v5Tabs v6Ukulele
Intro:
|-----------------------|
|-------3-----4--4-3--4-|
|-5--8--3------5----3---|
|-6--8--5-------5----3--|
|-6--6------------------|
|-----------------------|

Primer Verso:
 se que esta..
|-----------------------------------|--4----------------------|
|-----------4-----8----3--4--4-3--4-|---4---8----3--4--4-3--4-|
|------------5-----8---3---5----3---|--------8---3---5----3---|
|----------6--6-----8--5----5----3--|-6--6----8--5----5----3--|
|----------------6------------------|------6------------------|
|-----------------------------------|-------------------------|

Coro:
que aqui..
|--------------------------------------------------|
|--------------------------------------------------|
|-----------------88888888------------5555--3333---|
|-------66666666--88888888--55555555--5555--3333---|
|-------66666666--66666666--55555555--3333--1111---|
|-------44444444------------33333333---------------|

le quiero platicar..
|---------------------------------------------------|
|---------------------------------------------------|
|----------------------------------8-8888-88888888--|
|-----------------6-6666-66666666--8-8888-88888888--|
|-----------------6-6666-66666666--6-6666-66666666--|
|-----------------4-4444-44444444-------------------|

|------------------------------------|
|------------------------------------|
|-------------------5-5555--3-3333---|
|--5-5555-55555555--5-5555--3-3333---|
|--5-5555-55555555--3-3333--1-1111---|
|--3-3333-33333333-------------------|

Intermedio
|-----------------------|
|-------3-----4--4-3--4-|
|-5--8--3------5----3---|
|-6--8--5-------5----3--|
|-6--6------------------|
|-----------------------|

Segundo Verso:
se que ella se...
|-----------------------------------|--------------------------|
|-----------4-----8----3--4--4-3--4-|--4-----8----3--4--4-3--4-|
|------------5-----8---3---5----3---|---5-----8---3---5----3---|
|----------6--6-----8--5----5----3--|-6--6-----8--5----5----3--|
|----------------6------------------|-------6------------------|
|-----------------------------------|--------------------------|

Coro:
y decir..
|--------------------------------------------------|
|--------------------------------------------------|
|-----------------88888888------------5555--3333---|
|-------66666666--88888888--55555555--5555--3333---|
|-------66666666--66666666--55555555--3333--1111---|
|-------44444444------------33333333---------------|

le quiero abrazar..
|---------------------------------------------------|
|---------------------------------------------------|
|----------------------------------8-8888-88888888--|
|-----------------6-6666-66666666--8-8888-88888888--|
|-----------------6-6666-66666666--6-6666-66666666--|
|-----------------4-4444-44444444-------------------|

|------------------------------------|
|------------------------------------|
|-------------------5-5555--3-3333---|
|--5-5555-55555555--5-5555--3-3333---|
|--5-5555-55555555--3-3333--1-1111---|
|--3-3333-33333333-------------------|


la deberia recordar...
|---------------------------------------------------|
|---------------------------------------------------|
|-------------88-888-888--------------55-555-33-333-| esta parte
|-77-777-777--88-888-888--55-555-555--55-555-33-333-| 2 veces :)
|-77-777-777--66-666-666--55-555-555--33-333-11-111-|
|-55-555-555--------------33-333-333----------------|

Solo:

|------------------------------6---------------------------------|
|-----------------------------------------------------4--4-3--4--|
|-----------7--5-7-8--7-8-7---8-8----7-8-7----7-8-7----5----3----|
|-----5--6-8-----------------6---6--8-----8--5-----5----5----3---|
|--6-8-----------------------------------------------------------|
|-4--------------------------------------------------------------|

Silencio (solo hay bajo =/)

que aqui..
|--------------------------------------------------|
|--------------------------------------------------|
|-----------------88888888------------5555--3333---|
|-------66666666--88888888--55555555--5555--3333---|
|-------66666666--66666666--55555555--3333--1111---|
|-------44444444------------33333333---------------|

le quiero saludar..
|--------------------------------------------------|
|--------------------------------------------------|
|---------------------------------8-8888-88888888--|
|----------------6-6666-66666666--8-8888-88888888--|
|----------------6-6666-66666666--6-6666-66666666--|
|----------------4-4444-44444444-------------------|
                                  mi vida desvance mas.
|------------------------------------|
|------------------------------------|
|-------------------5-5555--3-3333---|
|--5-5555-55555555--5-5555--3-3333---|
|--5-5555-55555555--3-3333--1-1111---|
|--3-3333-33333333-------------------|

Outro:
|------------------------|
|------------------------|
|----------------888888--|
|--666666666666--888888--|
|--666666666666--666666--|
|--444444444444----------|


segun yo asi es para una sola guitarra, yo la toco en acustica pero supongo que en 
se escucha mejor :D
amm..
duda, sujerencia, o si nams quieren joder





Comments


Popular Panda tabs & chords
Maracas Bass Tabs
Nuestra Afliccion Chords
So Violento So Macabro 1 Chords
31 Intro Tabs
Cita En El Quirofano Tabs
Disculpa Los Malos Pensamientos 1 Tabs
Sunny Blue Tabs
Tanto Tabs
Un Tipo De Indulgencia Tabs
Fascinante Ukulele


Song lyrics



↑ Back to top | Tablatures and chords are parodies/interpretations of the original songs. You may use it for private study, scholarship, research or language learning purposes only
© 2014 AZChords.com Contact us | Privacy policy | DMCA | Add/correct tabs | Request tabs | Top 50 tabs