>
 >
Hola! 2

Hola! 2 Guitar Tabs

Panda - Hola! 2 chords, tabs, tablatures, lyrics

Guitar lessons | Add/correct | Request | Top 50 tabs Artists:  A B C D E F G H I J K L M N O P Q R S T U V W X Y Z 0-9

Hola! 2 Guitar Tabs – Panda

CD, Sheet music, Poster

Do you like Hola! 2? Share with your friends now
TabsTabs v2Tabs v3
Afinación : Re (Drop D) D, A, D, G, B, E


Intro
Guitarra 1
---------------------------------------------------
---------------------------------------------------
-8-8-8-8--------------------5-5-5-5----------------
-8-8-8-8--5h6-8-8-8-8-------5-5-5-5--1h3--6-6--8-8- x3
-6-6-6-6------8-8-8-8--5h6--3-3-3-3-------6-6--8-8-
--------------8-8-8-8---------------------6-6--8-8-
   . .          . .           . .                   PM

---------------------------------------------------
---------------------------------------------------
-8-8-8-8--------------------5-5-5-5----------------
-8-8-8-8--5h6-8-8-8-8-------5-5-5-5--1h3p1--6~-----
-6-6-6-6------8-8-8-8--5h6--3-3-3-3---------6~-----
--------------8-8-8-8-----------------------6~-----
   . .          . .           . .                   PM

Guitarra 2 
-------------
-------------
-8~----------
-8~----------
-6~----------
-------------
(averigua rasgueo)   
----------------------------------------------------------
----------------------------------------------------------
-8~--7--8~---7~--7/8--8/10-10/12~---10-8--7--7/8~---------
-x---x--x----x---x-x--x-x---x--x----x--x--x--x-x----------
-6~--5--6~---5~--5/6--6/8---8/10~---8--6--5--5/6~---------
----------------------------------------------------------

Verso ("Somos ¡¡PANDA!!")
Guitarra 1
--------------------------------------------------
--------------------------------------------------
--------------------------------------------------
-1-1---1-3-3---3-6-6---6-8-8---8------------------
-1-1---1-3-3---3-6-6---6-8-8---8------------------
-1-1---1-3-3---3-6-6---6-8-8---8------------------

--------------------------------------------------
--------------------------------------------------
--------------------------------------------------
-1-1---1-3-3---3-6-6------------------------------
-1-1---1-3-3---3-6-6------------------------------
-1-1---1-3-3---3-6-6---6/8-10h13-10h13p10---------

--------------------------------------------------
--------------------------------------------------
--------------------------------------------------
-1-1---1-3-3---3-6-6---6-8-8---8------------------x6
-1-1---1-3-3---3-6-6---6-8-8---8------------------
-1-1---1-3-3---3-6-6---6-8-8---8------------------

Guitarra 2
--------------------------------------------------
--------------------------------------------------
--------------------------------------------------
-1-1---1-3-3---3-6-6---6-8-8---8------------------x8
-1-1---1-3-3---3-6-6---6-8-8---8------------------
-1-1---1-3-3---3-6-6---6-8-8---8------------------

Coro
Guitarras 1 & 2
--------------------------------------------------
--------------------------------------------------
-8-8-8-8------------------------------------------
-8-8-8-8-8-8-8-8-10-10-10-10-6-6-8-8--------------x4
-6-6-6-6-8-8-8-8-10-10-10-10-6-6-8-8--------------
---------8-8-8-8-10-10-10-10-6-6-8-8--------------

Intro
Guitarra 1 (hace lo mismo que al principio=
Guitarra 2 (no se escucha que toque algo pero si quieres toca lo
mismo que en el coro)

Verso x4

Coro x4

Puente ("Yeeeeeee")
Guitarra 1
---------------------------------------------------
---------------------------------------------------
-8~------------------------------------------------
-8~---5--5h6--5------------------------------------x2
-6~-------------6--6h8--6--5-3--5------------------
---------------------------------------------------

Guitarra 3 
(Esto es un poco complicado, cuando dice yeee empieza a tocar esto 
con palm mute. Lo toca todo el puente con palm mute pero cuando esta terminando
va levantando el palm y va sonando mas fuerte. Pareciera que no esta allí pero se escucha
claramente al final. Si tienes dudas escucha el video, esta mas claro allí. Averigua cuantas veces se toca.)
----------------------------------------------------
---8-9---8-9---8-9---8-9---8-9---8-9----------------
-8-----8-----8-----8-----8-----8--------------------
----------------------------------------------------
----------------------------------------------------
----------------------------------------------------
 . . . . . . . . . . . . . . .                 PM

Guitarra 2 (Con una especie de chorus. Se mantiene mientras que la guitarra 1 
entra con el coro)
----------------------------------------------------
-8-----8----8---9------8-----8----8---9-------------
-----8----8-------8--------8----8-------8-----------
----------------------------------------------------x8
----------------------------------------------------
----------------------------------------------------

Coro
Cuando la guitarra 1 termina el puente hace un slide hacia hacia arriba 
y toca el coro
Guitarra 1
Coro x3 (después lo de abajo)
-------------------------------------------------------
-------------------------------------------------------
-8-8-8-8-----------------------------------------4-----
-8-8-8-8-8-8-8-8-10-10-10-10-6-6-8-8-x-x--x-x----4-----
-6-6-6-6-8-8-8-8-10-10-10-10-6-6-8-8-x-x--x-x----6-----
---------8-8-8-8-10-10-10-10-6-6-8-8-x-x--x-x----------

Guitarra 2 (Termina con)
--------------------
--------------------
--------------4-----
-x-x--x-x-----4-----
-x-x--x-x-----6-----
-x-x--x-x-----------

Eso es todo. Espero que les sirva.





Comments


Popular Panda tabs & chords
Los Malaventurados No Lloran Bass Tabs
Martiro De Otro Chords
Cuando No Es Como Deberia Ser 2 Tabs
En El Vaticano Tabs
Gripa Y Mundial Tabs
Ilasha Tabs
Los Malaventurados No Lloran 4 Tabs
Maracas Tabs
Narcisista Por Excelencia 6 Tabs
Popurri Para Ti Tabs


Song lyrics



↑ Back to top | Tablatures and chords are parodies/interpretations of the original songs. You may use it for private study, scholarship, research or language learning purposes only
© 2014 AZChords.com Contact us | Privacy policy | DMCA | Add/correct tabs | Request tabs | Top 50 tabs