» » »

Panda, Hola Tabs (ver.2)

Artists:  A B C D E F G H I J K L M N O P Q R S T U V W X Y Z # 

Hola Tabs (ver.2)

Panda Tabs
Rating:
0/5 (0 votes)
Hola lessons Tabs too difficult? Try these video lessons and learn fast
                PANDA
"HOLA"


intro 

e|----------------------------------------| |--------------------------------------|
b|----------------------------------------| |--------------------------------------|
g|-8888-----------------------------------| |-8888---------------------------------| 
d|-6666-5/6-8888-----10101010-------66-88-| |-8888-5/6-8888-----10101010-------6---|
a|-6666-----8888-5/6-10101010-6/8/6-66-66-| |-6666-----8888-5/6-10101010-6/8/6-6---|
d|----------6666------8-8-8-8-------44-66-| |----------6666------8-8-8-8-------4---|
pm  ..       ..         . .                 ..       ..         . .    
guitarra 2
e|-----------------------------------------------------------------------------|
b|-----------------------------------------------------------------------------|
g|-----------------------------------------------------------------------------|
d|-----------------------------------------------------------------------------|   
a|-6666666666666-5/6-6666666666666-5/6-66-88-10-10-11-11-10-10-8-5/6666666666--|
d|-----------------------------------------------------------------------------|

 verse
e|------------------------------|
b|------------------------------|
g|-88-81010-101212-121313-13----|
d|-88-81010-101212-121313-13----|   x4
a|-66-6-8-8--81010-101111-11----|
d|------------------------------|
 guitarra 2 en la segunda vuelta del verso
e|---------------------------|
b|---------------------------|
g|---------------------------|
d|---------------------------|
a|--66/8/9-8---6/8/9-8--6/8--|
d|---------------------------|

verse 2 y ahora vamos a empezar con el pan a rebanar...
e|------------------------------|
b|------------------------------|
g|-88-81010-10-55-57-7-7--------|   x4
d|-88-81010-10-55-57-7-7--------|
a|-66-6-8-8--8-33-35-5-5--------|
d|------------------------------|

chorus
e|---------------------------------|
b|---------------------------------|
g|-8888-x--------------------------|x2
d|-8888-x-88888-10101010-666-88----|
a|-6666-x-88888-10101010-666-88----|
d|--------66666--8-8-8-8-444-66----|

intro guitarra 1
verse
verse 2
chorus

interlude

e|----------------------------------|
b|----------------------------------|
g|----------------------------------|    
d|--5-5/6--5------------------------|x2
a|-6----------6--6/8-6--5/3-3-5-----|
d|----------------------------------|

coro x4

ends on:
e|------|
b|------|
g|-8----|
d|-8----|
a|-6----|
d|------|



100% correct!
Para todos los punketos de Acapulco fans de panda                      
atte:Gabriel Flores  (the original punkater)
            

comments powered by Disqus
↑ Back to top | Panda Tabs for Hola. Lyrics for acoustic guitar and electric guitar. Tablatures and chords are parodies/interpretations of the original songs. You may use it for private study, scholarship, research or language learning purposes only