» » »

Espejismos Y Visiones Tabs (ver.1)

Artists:  A B C D E F G H I J K L M N O P Q R S T U V W X Y Z # 

Espejismos Y Visiones Tabs (ver.1)

Panda
Rating:
0/5 (0 votes)

Hard to play? Try these video lessons and learn fast.
                PXNDX---ESPEJISMOS Y VISIONES / POETICS (acto 2/track 9)

intro
|----6-4-6-----6-4-6-----6-4-6-----6-4-6|
|-7---------6---------4-----------------|
|-------------------------------4-------|
|---------------------------------------|
|---------------------------------------|
|---------------------------------------|x2

verso (frio amanecera...)
|-----------|-----------|---2-------|-----------|
|-----------|-----------|------2----|---4--2----|
|---8--6----|---8--6----|--------3-1|--------3-1|
|--------8-6|--------8-6|-----------|-----------|
|-----------|-----------|-----------|-----------|
|-----------|-----------|-----------|-----------|x4

verso 2 (no me importa...)
|----------------------------------|
|----------------------------------|
|-8-x8-8----------11-x11-11--------|
|-8-x8-8--9-x9-9--11-x11-11--8-x8-8|
|-6-x6-6--9-x9-9---9-x-9--9--8-x8-8|
|---------7-x7-7-------------6-x6-6|x2

coro (hay momentos...)
|----------------------------------|
|----------------------------------|
|-888888--------111111111111-------|
|-888888-999999-111111111111-888888|
|-666666-999999--9-9-9-9-9-9-888888|
|--------777777--------------666666|x2

|----6-4-6-----6-4-6-----6-4-6-----6-4-6|
|-7---------6---------4-----------------|
|-------------------------------4-------|
|---------------------------------------|
|---------------------------------------|
|---------------------------------------|x2

verso (al salir a caminar...)
|-----------|-----------|---2-------|-----------|
|-----------|-----------|------2----|---4--2----|
|---8--6----|---8--6----|--------3-1|--------3-1|
|--------8-6|--------8-6|-----------|-----------|
|-----------|-----------|-----------|-----------|
|-----------|-----------|-----------|-----------|x4

verso 2 (no me importa...)
|----------------------------------|
|----------------------------------|
|-8-x8-8----------11-x11-11--------|
|-8-x8-8--9-x9-9--11-x11-11--8-x8-8|
|-6-x6-6--9-x9-9---9-x-9--9--8-x8-8|
|---------7-x7-7-------------6-x6-6|x2

coro (no comprendo...)
|----------------------------------|
|----------------------------------|
|-888888--------111111111111-------|
|-888888-999999-111111111111-888888|
|-666666-999999--9-9-9-9-9-9-888888|
|--------777777--------------666666|x2

coro (no habra...)
|----------------------------------|
|----------------------------------|
|-888888--------111111111111-------|
|-888888-999999-111111111111-888888|
|-666666-999999--9-9-9-9-9-9-888888|
|--------777777--------------666666|x2

letra:
[verso]
Frío amanecerá
los rostros mirarán
para nunca verte al cielo
muchas dudas causarán
acá y acullá, mucho lamentar
tanta vida que jamás
podrá vivirse ya
querrá resolverse y descifrar
por medio de actos
que comprometen la credulidad

[verso2]
no me importa
que me crean
solamente importa que
mis espejismos, mis visiones
tengan fe en mi
uhohuhoh

[coro]
hay momentos que deseo
ignorar las cosas
que ignoraba ayer
ayer
que ignoraba ayer

[verso]
al salir a caminar
de pronto empezará
un murmullo a retumbar
el cual puedo destinguir
que han de ser los muertos
queriendo salir
el sol ya no iluminará
las aves su cantar
ya no informará que el día esta aquí
es mi última oportunidad
de expresarle a ella mi sentir

[verso2]
no me importa
que me crean
solamente importa que
mis espejismos, mis visiones
tengan fe en mí
uhohuhoh

[coro]
no comprendo por que el miedo
de mañana sigue aquí esta hoy
te ofrezco hoy uhohuhoh
aquí esta
calcule las letras de
cada palabra de
cada oración

[coro]
no habrá otra ocasion para
cantarle a su balcón
uhohuhoh
quisiera besar tu cuerpo
por ultima vez, ya no podré
ya no estaré
adiós, adiós mujer
            
Hard to play? Try these video lessons and learn fast. | Correct




comments powered by Disqus
↑ Back to top | Tablatures and chords are parodies/interpretations of the original songs. You may use it for private study, scholarship, research or language learning purposes only