>
 >
El Cuello Perfecto

El Cuello Perfecto Guitar Tabs

Panda - El Cuello Perfecto chords, tabs, tablatures, lyrics

Guitar lessons | Add/correct | Request | Top 50 tabs Artists:  A B C D E F G H I J K L M N O P Q R S T U V W X Y Z 0-9

El Cuello Perfecto Guitar Tabs – Panda

CD, Sheet music, Poster

Do you like El Cuello Perfecto? Share with your friends now
Bass TabsChordsTabsTabs v2Ukulele
Simbología
/       slide(puede ser hacia arriba o acia abajo , depende)
p       pull off
h       hammer on
b       bending
r       release (lo inverso del bending)
~       dejar sonar


Intro

        Bbm                        Db     Ab    Db
eb--2-2-222--0-0-0-2-2-2--------2-2-222--0-0-0-2-2-2---------   |
Bb--3-3-333--2-2-2-3-3-3--------3-3-333--2-2-2-3-3-3---------   |
Gb--4-4-444--4-4-4-4-4-4--------2-2-222--2-2-2-2-2-2---------   |
Db-----------------------------------------------------------   |
Ab-----------------------------------------------------------   |
Eb-----------------------------------------------------------   |
                                                                |= x2
        Gb                        Db       Ab                   |
eb--3-3-333--5-5-5-3-3-3--------2-2-232--0-0-0-000-----------   |
Bb--3-3-333--3-3-3-3-3-3--------3-3-333--2-2-2-222-----------   |
Gb--4-4-444--4-4-4-4-4-4--------2-2-222--2-2-2-222-----------   |
Db-----------------------------------------------------------   |
Ab-----------------------------------------------------------   |
Eb-----------------------------------------------------------   |
                                                               /


Estrofas

        Bbm                        Db
eb--2-2-22x--2-2-2-2-2-2--------2-2-22x--2-2-2-2-2-2------------|
Bb--3-3-33x--3-3-3-3-3-3--------3-3-33x--3-3-3-3-3-3------------|
Gb--4-4-44x--4-4-4-4-4-4--------2-2-22x--2-2-2-2-2-2------------| x2
Db--------------------------------------------------------------|
Ab--------------------------------------------------------------|
Eb--------------------------------------------------------------|

(Esta parte me la inventé... pero pueden improvisar algo en Bbm)
   Ebm              Ab
eb--------------------------------------------------------------|
Bb--7--7--7---7-------------------------------------------------|
Gb----------7---7--7/9--9-7-7/9-99999---------------------------| x2
Db--------------------------------------------------------------|
Ab--------------------------------------------------------------|
Eb--------------------------------------------------------------|

(esto es al final de la última estrofa en vez de lo que está arriba)
  Ebm                    Ab             Ebm                  Ab
eb--14~~~~~17--------------------------14~~~~~~17---------------|
Bb--17b19~~~~---19r17-15-17--15-14-----17b19~~~~~---19r17-15-17-|
Gb--------------------------------------------------------------|
Db--------------------------------------------------------------|
Ab--------------------------------------------------------------|
Eb--------------------------------------------------------------|

Solo
(No lo pude sacar perfecto pero esto es lo que logré)
Se debe usar el efeco wah hasta la parte en que la batería va más rápido

  Gb                     Bbm      Ab
eb--------------------------------------------------------------|
Bb--------------------------------------------------------------|
Gb--9/7--9-9b11--11r9p7--9b11r9p7-----7h9-7h9--7/----0----------|
Db--------------------------------9-----------------------------|
Ab--------------------------------------------------------------|
Eb--------------------------------------------------------------|

  Gb                   Bbm         Ab
eb--------------------------------------------------------------|
Bb--7~~~--------10~~~--12~~~~12-14------------------------------|
Gb--9b11--9/12--12b14--14b16~~~~~~-16r14p12-14~~~~/-------------|
Db--------------------------------------------------------------|
Ab--------------------------------------------------------------|
Eb--------------------------------------------------------------|

  Ebm                                 Bbm
eb---------------------------------------------------------- ...
Bb---------------0h2h3h5~~--5p3p2p0~-------0h2h3h5--0h2h3h5- ...
Gb----------0h2h4---------------------0h2h4----------------- ...
Db-----0h2h4------------------------------------------------ ...
Ab---------------------------------------------------------- ...
Eb---------------------------------------------------------- ...
      Ab
... eb-2-0h2h3-3-0h2h3-5~~-|
... Bb---------------------|
... Gb---------------------|
... Db---------------------|
... Ab---------------------|
... Eb---------------------|

   Ebm                                              Bbm
eb-17-15-14h15p14----14----------------------------------|
Bb----------------17----17-15h17p15-14-15-14-------------|
Gb-------------------------------------------16-14-16-16-|
Db-------------------------------------------------------|
Ab-------------------------------------------------------|
Eb-------------------------------------------------------|

                 Ab
eb-------------14-15-17b19r17t19p17t19p17t19p17--|
Bb----14-15-17-----------------------------------|
Gb-16--------------------------------------------|
Db-----------------------------------------------|
Ab-----------------------------------------------|
Eb-----------------------------------------------|

   Gb
eb-14b15r14---------14b15r14------------------------------------|
Bb----------15-17------------15-17------------------------------|
Gb----------------------------------16~~------------------------|
Db--------------------------------------------------------------|
Ab--------------------------------------------------------------|
Eb--------------------------------------------------------------|

   Bbm              Ab
eb-14b15r14---------17b19r17-15-14h15p14------------------------|
Bb----------15-17------------------------17p15------------------|
Gb--------------------------------------------------------------|
Db--------------------------------------------------------------|
Ab--------------------------------------------------------------|
Eb--------------------------------------------------------------|

   Gbm
eb-14b15r14---------14b15r14------------------------------------|
Bb----------15-17------------15-17------------------------------|
Gb----------------------------------16~~------------------------|
Db--------------------------------------------------------------|
Ab--------------------------------------------------------------|
Eb--------------------------------------------------------------|

   Bbm              Ab
eb-14b15r14-----------------------------------------------------|
Bb----------15-17---14-14-14/15-15/17-17/19-19/-----------------|
Gb--------------------------------------------------------------|
Db--------------------------------------------------------------|
Ab--------------------------------------------------------------|
Eb--------------------------------------------------------------|

   Ebm                               Bbm                Ab
eb---------------------------------------------------------------|
Bb-15p14-----------14-15p14----------15p14-----------------------|
Gb-------14-----14----------14-------------14--------------------|
Db----------16-----------------16~------------16-16-14-16b17r16~-|
Ab---------------------------------------------------------------|
Eb---------------------------------------------------------------|

   Ebm
eb-14b15r14---------14b15r14------------------------------------|
Bb----------15-17------------15-17------------------------------|
Gb----------------------------------16~~------------------------|
Db--------------------------------------------------------------|
Ab--------------------------------------------------------------|
Eb--------------------------------------------------------------|

   Bbm              Ab
eb-14b15r14---------17-17-17/-----------------------------------|
Bb----------15-17-----------------------------------------------|
Gb--------------------------------------------------------------|
Db--------------------------------------------------------------|
Ab--------------------------------------------------------------|
Eb--------------------------------------------------------------|


Y a continuación los acordes sobre la letra de la canción...


**ESTROFAS**
Bbm                        Db
        No me sacio quiero mas estoy muy incorrecto
Bbm                           Db
        alla afuera ya esta oscuro ya llegó el momento
Ebm                     Ab
        Trato de aparentar que soy normal y bueno
Ebm                         Ab
        serlo es lo que mas quiero

Bbm                     Db
        Esta vida no elegí ella me escogio a mi
Bbm                               Db
        me hicieron parte de este clan sin mi consentimiento
Ebm                      Ab
        muy atento ahora busco el cuello perfecto
Ebm                     Db                Gb   Bbm-Ab
        que me de mi alimento


**CORO**
        Bbm             Db
        Mi hambre no tiene final
             Gb           Ab
        me altero mas cuando la veo bloquear
        Bbm           Db
        es de noche y ya me voy
              Gb         Db          Ab       Gb
        la oscuridad me ayuda a saciar mi ambición


**ESTROFAS**
(Esto es solo batería)
        Siempre me visto de negro así camuflajear
        pasar desapercibido antes de atacar
Ebm                       Ab
        Asi como el ser humano ocupa comer
Ebm                          Ab
        lo que ocupo yo es tomar

Bbm                      Db
        Por ahi murmuran que yo peco de avaricia
Bbm                      Db
        que acambio solo doy una simple caricia
Ebm                         Ab
        Que mis ojos son profundos eso no es noticia
Ebm                         Ab
        los colmillos no se quitan


**CORO**
        Bbm             Db
        Mi hambre no tiene final
             Gb           Ab
        me altero mas cuando la veo bloquear
        Bbm           Db
        es de noche y ya me voy
              Gb         Db          Ab       Gb--->
        la oscuridad me ayuda a saciar mi ambición


**SOLO**
-->Gb   Bbm-Gb
Gb      Bbm-Gb
Ebm     Bbm-Gb
Ebm     Bbm-Gb         x2





Comments


Popular Panda tabs & chords
Procedimientos Para Llegar A Un Comun Acuerdo Bass Tabs
Amnistia 1 Chords
Los Malaventurados No Lloran Chords
A Pero Como Vendo Casettes Tabs
Cortame Con Unas Tijeras Tabs
Del Rapto Y Otros Pormenores 1 Tabs
La Estrategia Perdida 1 Tabs
Cuando No Es Como Deberia Ser 2 Ukulele
Dime Otra Vez Ukulele
Nuestra Afliccin Ukulele


Song lyrics



↑ Back to top | Tablatures and chords are parodies/interpretations of the original songs. You may use it for private study, scholarship, research or language learning purposes only
© 2014 AZChords.com Contact us | Privacy policy | DMCA | Add/correct tabs | Request tabs | Top 50 tabs