>
 >
Doble Gracias

Doble Gracias Guitar Tabs

Panda - Doble Gracias chords, tabs, tablatures, lyrics

Guitar lessons | Add/correct | Request | Top 50 tabs Artists:  A B C D E F G H I J K L M N O P Q R S T U V W X Y Z 0-9

Doble Gracias Guitar Tabs – Panda

CD, Sheet music, Poster

Do you like Doble Gracias? Share with your friends now
Bass TabsTabs
Panda


intro:
Gtr 1
e|------------------------------------------------------------|
b|---4-------6-4-----6--------------4------6-4----4-----------|
g|-4---6---4-------4---6--4-2-4---2---6--4------4---6--4-2-4--| 
d|------------------------------------------------------------|
a|------------------------------------------------------------|
d|------------------------------------------------------------|
Gtr 2
e|-------------------------|
b|-------------------------|
g|-------6-66--------------| 
d|-6-66--6-66--6-66--3-33--|x2
a|-6-66--4-44--6-66--3-33--|
d|-4-44--------4-44--1-11--|
 
 verso: yo no se como olvidarte...
e|----------------|
b|----------------|
g|----------6--8--| 
d|-6--3--6--6--8--|
a|-6--3--6--4--6--|
d|-4--1--4--------|

 yo en el cine te mire...
Gtr 1
e|----------------------------------------------------------------------------|                 
b|----------------------------------------------------------------------------|                 
g|-6666-8888------------6666-8888------------6666-8888------------------------|               
d|-6666-8888-6666-3333--6666-8888-6666-3333--6666-8888--66-6--66-6--33-3-33-3-|                
a|-4444-6666-6666-3333--4444-6666-6666-3333--4444-6666--66-6--66-6--33-3-33-3-|                 
d|-----------4444-1111------------4444-1111-------------44-4--44-4--11-1-11-1-|            
Gtr 2                                               pm  ..    ..    ..   ..                        
e|---------------------------------------------------------------------------|                 
b|---------------------------------------------------------------------------|                 
g|-6666-8888------------6666-8888------------6666-8888-----------------------|               
d|-6666-8888-6666-3333--6666-8888-6666-3333--6666-8888--xx-6-xx-6--xx-3-xx-3-|                
a|-4444-6666-6666-3333--4444-6666-6666-3333--4444-6666--xx-6-xx-6--xx-3-xx-3-|                 
d|-----------4444-1111------------4444-1111-------------xx-4-xx-4--xx-1-xx-1-|      
 
yo te pido por favor solo una oportunidad Gtr 1 y 2
e|--------------------|
b|--------------------|
g|-66666666--88888888-| 
d|-66666666--88888888-|
a|-44444444--66666666-|
d|--------------------|

wo wooo..              solo una oportunidad
Gtr 1 y 2
e|---------------|  |------------|
b|---------------|  |------------|
g|----x88-x66-x8-|  |-6666-xx8x8-|
d|-66-x88-x66-x8-|  |-6666-xx8x8-|
a|-66-x66-x44-x6-|  |-4444-xx6x6-|
d|-44------------|  |------------|

 verso: yo te vi al dia siguiente... 
e|----------------|
b|----------------|
g|----------6--8--| 
d|-6--3--6--6--8--|
a|-6--3--6--4--6--|
d|-4--1--4--------|

  y eres tu ke me hace ver...
Gtr 1
e|----------------------------------------------------------------------------|                 
b|----------------------------------------------------------------------------|                 
g|-6666-8888------------6666-8888------------6666-8888------------------------|               
d|-6666-8888-6666-3333--6666-8888-6666-3333--6666-8888--66-6--66-6--33-3-33-3-|                
a|-4444-6666-6666-3333--4444-6666-6666-3333--4444-6666--66-6--66-6--33-3-33-3-|                 
d|-----------4444-1111------------4444-1111-------------44-4--44-4--11-1-11-1-|            
Gtr 2                                               pm  ..    ..    ..   ..                        
e|---------------------------------------------------------------------------|                 
b|---------------------------------------------------------------------------|                 
g|-6666-8888------------6666-8888------------6666-8888-----------------------|               
d|-6666-8888-6666-3333--6666-8888-6666-3333--6666-8888--xx-6-xx-6--xx-3-xx-3-|                
a|-4444-6666-6666-3333--4444-6666-6666-3333--4444-6666--xx-6-xx-6--xx-3-xx-3-|                 
d|-----------4444-1111------------4444-1111-------------xx-4-xx-4--xx-1-xx-1-|      

 yo te pido por favor solo una oportunidad Gtr 1 y 2
e|--------------------|
b|--------------------|
g|-66666666--88888888-| 
d|-66666666--88888888-|
a|-44444444--66666666-|
d|--------------------|

wo wooo..              solo una oportunidad
Gtr 1 y 2
e|---------------|  |------------|
b|---------------|  |------------|
g|----x88-x66-x8-|  |-6666-xx8x8-|
d|-66-x88-x66-x8-|  |-6666-xx8x8-|
a|-66-x66-x44-x6-|  |-4444-xx6x6-|
d|-44------------|  |------------|

Gtr 1
e|------------------------------------------------------------|
b|---4-------6-4-----6--------------4------6-4----4-----------|
g|-4---6---4-------4---6--4-2-4---2---6--4------4---6--4-2-4--| 
d|------------------------------------------------------------|
a|------------------------------------------------------------|
d|------------------------------------------------------------|
Gtr 2
e|-------------------------|
b|-------------------------|
g|-------6-66--------------| 
d|-6-66--6-66--6-66--3-33--|x2
a|-6-66--4-44--6-66--3-33--|
d|-4-44--------4-44--1-11--|

 yo no dejo de soņarte... (es puro bajo)

 solo kiero hacerte ver...
Gtr 1
e|----------------------------------------------------------------------------|                 
b|----------------------------------------------------------------------------|                 
g|-6666-8888------------6666-8888------------6666-8888------------------------|               
d|-6666-8888-6666-3333--6666-8888-6666-3333--6666-8888--66-6--66-6--33-3-33-3-|                
a|-4444-6666-6666-3333--4444-6666-6666-3333--4444-6666--66-6--66-6--33-3-33-3-|                 
d|-----------4444-1111------------4444-1111-------------44-4--44-4--11-1-11-1-|            
Gtr 2                                               pm  ..    ..    ..   ..                        
e|---------------------------------------------------------------------------|                 
b|---------------------------------------------------------------------------|                 
g|-6666-8888------------6666-8888------------6666-8888-----------------------|               
d|-6666-8888-6666-3333--6666-8888-6666-3333--6666-8888--xx-6-xx-6--xx-3-xx-3-|                
a|-4444-6666-6666-3333--4444-6666-6666-3333--4444-6666--xx-6-xx-6--xx-3-xx-3-|                 
d|-----------4444-1111------------4444-1111-------------xx-4-xx-4--xx-1-xx-1-|      
 yo te pido por favor solo una oportunidad Gtr 1 y 2
e|--------------------|
b|--------------------|
g|-66666666--88888888-| 
d|-66666666--88888888-|
a|-44444444--66666666-|
d|--------------------|

wo wooo..              solo una oportunidad
Gtr 1 y 2
e|---------------|  |------------|
b|---------------|  |------------|
g|----x88-x66-x8-|  |-6666-xx8x8-|
d|-66-x88-x66-x8-|  |-6666-xx8x8-|
a|-66-x66-x44-x6-|  |-4444-xx6x6-|
d|-44------------|  |------------|

Gtr 1
e|------------------------------------------------------------|
b|---4-------6-4-----6--------------4------6-4----4-----------|
g|-4---6---4-------4---6--4-2-4---2---6--4------4---6--4-2-4--| 
d|------------------------------------------------------------|
a|------------------------------------------------------------|
d|------------------------------------------------------------|
Gtr 2
e|-------------------------|
b|-------------------------|
g|-------6-66--------------| 
d|-6-66--6-66--6-66--3-33--|x2
a|-6-66--4-44--6-66--3-33--|
d|-4-44--------4-44--1-11--|

 outro
e|-----|
b|-----|
g|-----|
d|--6--|
a|--6--|
d|--4--|


esta rola es de las mas faciles de panda y de las mas pro 
tokenla esta perfecta solo ponganle la distorcion y ya
eso es todo, si no le entienden al coro solo vean los acordes.  Y ARRIBA EL PUNK!!!!

 Atte: "The Original Punkater"  (Gabriel Flores)
 
 Acapulco Gro.





Comments


Popular Panda tabs & chords
Narcicista Por Excelencia Bass Tabs
Comfy In Nautica Chords
Martirio De Otro Chords
Martiro De Otro Chords
Agradable Locura Temporal 1 Tabs
Buen Dia Tabs
El Cuello Perfecto Tabs
Ilasha Tabs
Mi Muneca Intro Tabs
Maracas Ukulele


Song lyrics



↑ Back to top | Tablatures and chords are parodies/interpretations of the original songs. You may use it for private study, scholarship, research or language learning purposes only
© 2014 AZChords.com Contact us | Privacy policy | DMCA | Add/correct tabs | Request tabs | Top 50 tabs