» » »

Panda, Conversacion Casual Tabs (ver.1)

Artists:  A B C D E F G H I J K L M N O P Q R S T U V W X Y Z # 

Conversacion Casual Tabs (ver.1)

Panda Tabs
 Rating:
4/5 (4 votes)
Conversacion Casual lessons Tabs too difficult? Try these video lessons and learn fast
1
                Intro

Artur Guitarra 1

|---------------------------------7-7--9-9-|
|---7-7-7--9-9-9---------------------------|
|------------------8-8-8--9-9-9------------|
|------------------------------------------|
|------------------------------------------|
|------------------------------------------|  (x4)


Pepe  guitarra2
|--4--|
|--5--|
|--6--|
|--6--|
|--4--|
|--4--| (x2)


Verso (x2)

|---------------------------------7-7--9-9--7-7-7--|
|---7-7-7--9-9-9-----------------------------------|
|------------------8-8-8--9-9-9--------------------|
|--------------------------------------------------|
|--------------------------------------------------|
|--------------------------------------------------|


|--------------------------------------|
|9-9-9--10-10-10--9-9-9--10-10--9-9----|
|--------------------------------------|
|--------------------------------------|
|--------------------------------------|
|--------------------------------------|


|----12-12-12--9-9-9--7-7-7-----------------------|
|--------------------------------9-9-9--10-10--9-9|
|-------------------------------------------------|
|-------------------------------------------------|
|-------------------------------------------------|
|-------------------------------------------------|


La Ultima Parte 12-12-12- (x2)


(Coro) (x2)

Pepe G2

|----------------------------------------------------|
|----------------------------------------------------|
|---9-9-9-9-9------------------6-6-6-6-6---4-4-4-4-4-|
|---9-9-9-9-9---6-6-6-6-6------6-6-6-6-6---4-4-4-4-4-|
|---7-7-7-7-7---6-6-6-6-6------4-4-4-4-4---2-2-2-2-2-|
|---------------4-4-4-4-4----------------------------|

ARtur 1

|---12----12----12----12--------11---11--11--11--------|
|------12----12----12----12--------9----9----9---9-----|
|------------------------------------------------------|
|------------------------------------------------------|
|------------------------------------------------------|
|------------------------------------------------------|


|-12----12----12----12-------------------------------|
|----14----14----14----14-----12---12---12---12------|
|--------------------------------11---11---11---11---|
|----------------------------------------------------|
|----------------------------------------------------|
|----------------------------------------------------|



Verso (x2)

|---------------------------------7-7--9-9--7-7-7--|
|---7-7-7--9-9-9-----------------------------------|
|------------------8-8-8--9-9-9--------------------|
|--------------------------------------------------|
|--------------------------------------------------|
|--------------------------------------------------|


|--------------------------------------|
|9-9-9--10-10-10--9-9-9--10-10--9-9----|
|--------------------------------------|
|--------------------------------------|
|--------------------------------------|
|--------------------------------------|


|----12-12-12--9-9-9--7-7-7-----------------------|
|--------------------------------9-9-9--10-10--9-9|
|-------------------------------------------------|
|-------------------------------------------------|
|-------------------------------------------------|
|-------------------------------------------------|


La Ultima Parte 12-12-12- (x2)


(Coro) (x2)

Pepe G2

|----------------------------------------------------|
|----------------------------------------------------|
|---9-9-9-9-9------------------6-6-6-6-6---4-4-4-4-4-|
|---9-9-9-9-9---6-6-6-6-6------6-6-6-6-6---4-4-4-4-4-|
|---7-7-7-7-7---6-6-6-6-6------4-4-4-4-4---2-2-2-2-2-|
|---------------4-4-4-4-4----------------------------|

ARtur 1

|---12----12----12----12--------11---11--11--11--------|
|------12----12----12----12--------9----9----9---9-----|
|------------------------------------------------------|
|------------------------------------------------------|
|------------------------------------------------------|
|------------------------------------------------------|


|-12----12----12----12-------------------------------|
|----14----14----14----14-----12---12---12---12------|
|--------------------------------11---11---11---11---|
|----------------------------------------------------|
|----------------------------------------------------|
|----------------------------------------------------|



(Solo)

|----------------------------------------------------------|
|---12-(x15)--11-11-11--12-12-12--14-14-14-14-14-14-14-|
|----------------------------------------------------------|
|----------------------------------------------------------|
|----------------------------------------------------------|
|----------------------------------------------------------| (x1)


|---14---------14--------14--------14--------14----15----|
|------12--12-----12--12----12--12---12--12----12----12--|
|--------------------------------------------------------|
|--------------------------------------------------------|
|--------------------------------------------------------|
|--------------------------------------------------------| (x2)

|---16-16-16--17-17-17--16-16-16--17-17-17--19-|
|--------------------------------------------------|
|--------------------------------------------------|
|--------------------------------------------------|
|--------------------------------------------------|
|--------------------------------------------------| (x2)

(Coro) (x2)

Pepe G2

|----------------------------------------------------|
|----------------------------------------------------|
|---9-9-9-9-9------------------6-6-6-6-6---4-4-4-4-4-|
|---9-9-9-9-9---6-6-6-6-6------6-6-6-6-6---4-4-4-4-4-|
|---7-7-7-7-7---6-6-6-6-6------4-4-4-4-4---2-2-2-2-2-|
|---------------4-4-4-4-4----------------------------|

ARtur 1

|---12----12----12----12--------11---11--11--11--------|
|------12----12----12----12--------9----9----9---9-----|
|------------------------------------------------------|
|------------------------------------------------------|
|------------------------------------------------------|
|------------------------------------------------------|


|-12----12----12----12-------------------------------|
|----14----14----14----14-----12---12---12---12------|
|--------------------------------11---11---11---11---|
|----------------------------------------------------|
|----------------------------------------------------|
|----------------------------------------------------|
            
Submit corrections

comments powered by Disqus
↑ Back to top | Panda Tabs for Conversacion Casual. Lyrics for acoustic guitar and electric guitar. 1 Tablatures and chords are parodies/interpretations of the original songs. You may use it for private study, scholarship, research or language learning purposes only