» » »

Panda, Cita En El Quirofano Tabs (ver.5)

Artists:  A B C D E F G H I J K L M N O P Q R S T U V W X Y Z # 

Cita En El Quirofano Tabs (ver.5)

Panda Tabs
 Rating:
4/5 (4 votes)
Cita En El Quirofano lessons Tabs too difficult? Try these video lessons and learn fast
                He chekdo todas las tabs de cita y muchas les falta el solo, no esta y también algunos 
que tiene la cancion, así que aqui les dejo el solo muy parecido aunque es algo
tarde jejejeje

Intro A
Guitar 1
|-------------------|
|-------------------|
|-------------------|
|-9999999-99-99-99--| X2
|-7777777-77-77-77--|
|-5555555-55-55-55--|
pm.....

Intro B
Guitar 1 intro A X2

Guitar 2
|----------------------------------------------------------------------|
|----------------------------------------------------------------------|
|----------------------------------------------------------------------| X2
|------------------6666666-66-66-66-2222222-22-22-22-4444444-6666-6666-|
|-4444444-44-44-44-7777777-77-77-77-4444444-44-44-44-5555555-7777-7777-|
|-5555555-55-55-55-----------------------------------------------------|
pm.....            .....            .....            .....   ...  ...

Verso 1
|----------------------------------------------------------------------|
|----------------------------------------------------------------------|
|-------9------------7----9--------------99999999--------7--7-7-9--9-9-|
|-7-----9-(X8)4------7(X4)9(X4)--7777777799999999444444447--7-7-9--9-9-|
|-7-(X8)7-----4-(X8)-5----7------7777777777777777444444445--5-5-7--7-7-|
|-5-----------2------------------55555555--------22222222--------------|

Verso 2
Guitar 1
|-----------------------------------------------------------------|
|-----------------------------------------------------------------|
|-----------------------------------------------------------------|
|---------------------------------9-9-999-9-9-999-9-9-999-9-9-999-|
|-7-7-777-7-7-777-7-7-777-7-7-777-7-7-777-7-7-777-7-7-777-7-7-777-|
|-5-5-555-5-5-555-5-5-555-5-5-555---------------------------------|
pm................................................................

|-----------------------------------------------------------------|
|-----------------------------------------------------------------|
|-----------------------------------------------------------------|
|---------------------------------4-4-444-4-4-444-6-6-666-6-6-666-|
|-4-4-444-4-4-444-4-4-444-4-4-444-5-5-555-5-5-555-7-7-777-7-7-777-|
|-2-2-222-2-2-222-2-2-222-2-2-222---------------------------------|
pm................................................................

Repites el verso 2 pero cuando llegas a C# cambias por esto

|------------------------|
|------------------------|
|-7--7-7-9--9-9----------|
|-7--7-7-9--9-9-77777777-|
|-5--5-5-7--7-7-77777777-|
|---------------55555555-|

Coro:
|-------------------------------------------------------------------|
|-------------------------------------------------------------------|
|-----6-------6-------6-------6-------6-------6-------6-------6-----|
|---7---7---7---7---7---7---7---7---7---7---7---7---7---7---7---7---|X2
|---------------------------------4-------4-------5-------7-------7-|
|-5-------5-------0-------0-----------------------------------------|

Verso 3

Guitar 1 (verso 2)

Guitar 2
|----------------------------------------------------------|
|----------------------------------1010-101010--99-999-9\\-|
|------------------9-9-9-9---------x x -x x x --xx-xxx-x\\-|
|--7-7-9-9-7-7-9-9---------7-7-9-9-7 7 -7 7 7 --66-666-6\\-|
|-7-7-7-7-7-7-7-7-7-7-7-7-7-7-7-7--------------------------|
|----------------------------------------------------------|

|-----------------------------------------|
|-----------------------------------------|
|------------------7--7-7-9--9-9----------|
|--7-7-9-9-7-7-9-9-7--7-7-9--9-9-77777777-|
|-7-7-7-7-7-7-7-7--5--5-5-7--7-7-77777777-|
|--------------------------------55555555-|

Solo
|--------------------------------------------------------7777-9999-|
|----------------------------------------------7777-9999-----------|
|------------------------------------7777-9999---------------------|
|--------------------------7777-9999-------------------------------|
|----------------7777-9999-----------------------------------------|
|-5555-7777-9999---------------------------------------------------|

|-10101010-12v~~12v-12-10-9-10-12-14tr-16tr-17v-16-17-17b19-17-16-17-16\12-|
|--------------------------------------------------------------------------|
|--------------------------------------------------------------------------|
|--------------------------------------------------------------------------|
|--------------------------------------------------------------------------|
|--------------------------------------------------------------------------|

|-17-14-17-12-17----17----17----17------------------------------|
|----------------15----14---------------------17b20-17b20-17v\\-|
|----------------------------16----14v--14-14-------------------|
|---------------------------------------------------------------|
|---------------------------------------------------------------|
|---------------------------------------------------------------|

|---------------------------------------------------------------------------|
|---------------------------------------------------------------------------|
|-//18b20r18-16-------18b20r18-16-------18b20r18-16----16-18b20r18-16----16-|
|---------------18-16-------------18-16-------------18----------------18----|
|---------------------------------------------------------------------------|
|---------------------------------------------------------------------------|

|-------------------------17v-17p16p14-17p16p14-17p16p14-17p16p14----------|
|------17b20-17b20-17---------------------------------------------17p15p14-|
|-1414---------------------------------------------------------------------|
|--------------------------------------------------------------------------|
|--------------------------------------------------------------------------|
|--------------------------------------------------------------------------|

|------------------------------------------------------------------------|
|-17p15p14-17p15p14-17p15p14--------------------------------------14-17v-|
|----------------------------16p14p13-16p14p13--------------14-16--------|
|----------------------------------------------16-14v-14-16--------------|
|------------------------------------------------------------------------|
|------------------------------------------------------------------------|

|-14-17p16p14-17p16p14-17p16p14-17p16p14-17b18v-//19b21v\\\-|
|-----------------------------------------------------------|
|-----------------------------------------------------------|
|-----------------------------------------------------------|
|-----------------------------------------------------------|
|-----------------------------------------------------------|

Coro final
|----------------------------------|
|----------------------------------|
|---------999999996666666677779999-|
|-77777777999999996666666677779999-
|-77777777777777774444444455557777-
|-55555555-------------------------

outro
parecido al introducción pero los 2 ultimos acordes son así

|-------------------------------------|
|-------------------------------------|
|-7------9-----7----------------------| Acaba en C#
|-4------6-----4--000000000000-0-0-0~-|
|-5------7-----5----------------------|
|-------------------------------------|

Orden:
Intro A X2
Intro B X2
Verso 1 X1
verso 2 X1
Coro X2
intro B X1
Verso 3 X1
Coro X1
Intro B X1
Solo X1
Coro X1
intro B X1
Outro X1
            
Submit corrections

comments powered by Disqus
↑ Back to top | Panda Tabs for Cita En El Quirofano. Lyrics for acoustic guitar and electric guitar. Tablatures and chords are parodies/interpretations of the original songs. You may use it for private study, scholarship, research or language learning purposes only