» » »

Panda, Casi Nula Autoestima Bass tabs (ver.1)

Artists:  A B C D E F G H I J K L M N O P Q R S T U V W X Y Z # 

Casi Nula Autoestima Bass tabs (ver.1)

Panda Tabs
 Rating:
4/5 (4 votes)
Casi Nula Autoestima lessons Tabs too difficult? Try these video lessons and learn fast
                Intro:
Gb|---------|---------|---------|---------|
Db|---------|---------|---------|---------|
Ab|-5-5-5-5-|-2-2-2-2-|---------|---------|
Eb|---------|---------|-3-3-3-3-|-5-5-5-5-|

Verso:
Gb|-------------------------------------------------|
Db|---------7-7-7-5-5-5-4-4---------4-4-4-2-2-2-0-0-|
Ab|-5-5-5-5-----------------2-2-2-2-----------------|
Eb|-------------------------------------------------|  
                                                         
Gb|------------------------------------------------|
Db|------------------------------------------------|
Ab|---------2----2----2------------7-7-7-5-5-5-4-4-| Se repite x2
Eb|-3-3-3-3---3-3--3-3--3--5-5-5-5-----------------|

Intro:
Gb|---------|---------|-----------------|------------------------|
Db|---------|---------|-----------------|------------------------|
Ab|-5-5-5-5-|-2-2-2-2-|------2---2------|--------7-7-7-5-5-5-4-4-|
Eb|---------|---------|-3-3-3--3-3--3-3-|-5-5-5-5----------------|

Verso:
Gb|-------------------------------------------------|
Db|---------7-7-7-5-5-5-4-4---------4-4-4-2-2-2-0-0-|
Ab|-5-5-5-5-----------------2-2-2-2-----------------|
Eb|-------------------------------------------------|  
                                                         
Gb|------------------------------------------------|
Db|------------------------------------------------|
Ab|---------2----2----2------------7-7-7-5-5-5-4-4-| 
Eb|-3-3-3-3---3-3--3-3--3--5-5-5-5-----------------|

Gb|-------------------------------------------------|
Db|---------7-7-7-5-5-5-4-4---------4-4-4-2-2-2-0-0-|
Ab|-5-5-5-5-----------------2-2-2-2-----------------|
Eb|-------------------------------------------------|  
                                                         
Gb|------------------------------------------------------|
Db|------------------------------------------------------|
Ab|---------2----2----2------------7-7-7-9-9-9-10-10-12~-| 
Eb|-3-3-3-3---3-3--3-3--3--5-5-5-5-----------------------|

1:12
Gb|-14-12-11-----11-9-7-------------------|
Db|----------9~---------------9----9------|
Ab|---------------------10~-----10---12~--|
Eb|---------------------------------------| 

1:21
Gb|-11-9-8---------------------------------------------|
Db|-------------7-5-4------2-4-0-----------------------|
Ab|--------5~---------2~--------------2---2------7-5-4-|
Eb|------------------------------3~-----3---5~---------| 

Estoy seguro que de perdido...

Gb|-------------------------------------------------|
Db|---------7-7-7-5-5-5-4-4---------4-4-4-2-2-2-0-0-|
Ab|-5-5-5-5-----------------2-2-2-2-----------------|
Eb|-------------------------------------------------|  
                                                         
Gb|------------------------------------------------|
Db|------------------------------------------------|
Ab|---------2----2----2------------7-7-7-5-5-5-4-4-| 
Eb|-3-3-3-3---3-3--3-3--3--5-5-5-5-----------------|

Gb|-------------------------------------------------|
Db|---------7-7-7-5-5-5-4-4---------4-4-4-2-2-2-0-0-|
Ab|-5-5-5-5-----------------2-2-2-2-----------------|
Eb|-------------------------------------------------|  
                                                         
Gb|------------------------------------------------------|
Db|------------------------------------------------------|
Ab|---------2----2----2------------7-7-7-9-9-9-10-10-12~-| 
Eb|-3-3-3-3---3-3--3-3--3--5-5-5-5-----------------------|

1:59
Gb|-14-12-11-----11-9-7-------------------|
Db|----------9~---------------9----9------|
Ab|---------------------10~-----10---12~--|
Eb|---------------------------------------| 

Gb|-11-9-8---------------------------------------------|
Db|-------------7-5-4------2-4-0-----------------------|
Ab|--------5~---------2~--------------2---2------7-5-4-|
Eb|------------------------------3~-----3---5~---------| 

No soy competente para ti...
Gb|-------------------------------------------------|
Db|---------7-7-7-5-5-5-4-4---------4-4-4-2-2-2-0-0-|
Ab|-5-5-5-5-----------------2-2-2-2-----------------|
Eb|-------------------------------------------------|  
                                                         
Gb|------------------------------------------------|
Db|------------------------------------------------|
Ab|---------2----2----2------------7-7-7-5-5-5-4-4-| Se repite x2
Eb|-3-3-3-3---3-3--3-3--3--5-5-5-5-----------------|

No soy competente para ti...
Gb|---------|---------|---------|---------|
Db|---------|---------|---------|---------|
Ab|-5-5-5-5-|-2-2-2-2-|---------|---------|
Eb|---------|---------|-3-3-3-3-|-5-5-5-5-|

que no soy idóneo...
Gb|-------------------------------------------------|
Db|---------7-7-7-5-5-5-4-4---------4-4-4-2-2-2-0-0-|
Ab|-5-5-5-5-----------------2-2-2-2-----------------|
Eb|-------------------------------------------------|  
                                                         
Gb|------------------------------------------------|
Db|------------------------------------------------|
Ab|---------2----2----2------------7-7-7-5-5-5-4-4-| todo el verso,
Eb|-3-3-3-3---3-3--3-3--3--5-5-5-5-----------------| hasta el final

Fin: Ab|-5~~-|

así o mas explikado
            
Submit corrections

comments powered by Disqus
↑ Back to top | Panda Bass for Casi Nula Autoestima. Lyrics for acoustic guitar and electric guitar. Tablatures and chords are parodies/interpretations of the original songs. You may use it for private study, scholarship, research or language learning purposes only