>
 >
A Pero Como Vendo Casettes

A Pero Como Vendo Casettes Guitar Tabs

Panda - A Pero Como Vendo Casettes chords, tabs, tablatures, lyrics

Guitar lessons | Add/correct | Request | Top 50 tabs Artists:  A B C D E F G H I J K L M N O P Q R S T U V W X Y Z 0-9

A Pero Como Vendo Casettes Guitar Tabs – Panda

CD, Sheet music, Poster

Do you like A Pero Como Vendo Casettes? Share with your friends now
Tabs
pues bueno esta canción soy el primero que la transcribe pues a eso
me dedico,bueno les mando saludos a mi hermosa amiga Lorena que la quiero mucho
¡COMO SIEMPRE LA GUITARRA VA AFINADA EN BEMOL!

VAN 2 GUITARRAS
  INTRO   \"fantorche....\"
guitarra 2
e------------|---------------------------|
B------------|---------------------------|
G------------|---------------------------|
D--/8---/7---|---6/7--7-----7-7-7-7-7-7--|
A--/8---/7---|---6/7--7-----7-7-7-7-7-7--|
E--/8---/7---|---6/7--7-----7-7-7-7-7-7--|


ESTO VA CUANDO PEPE EMPIEZA A CANTAR:

guitarra 2
e-------------------------------|
b-------------------------------|
g--7-7-7--9-9-9-----------------|
d--7-7-7--9-9-9--9-9-9--5-5-5---|X8
a--5-5-5--7-7-7--9-9-9--5-5-5---|
e----------------7-7-7--3-3-3---|

ESTO VA ACOMPAÑANDO DE LA GUITARRA 2

guitarra 1

e/10-/10-/10-/10-/10--/13-13-|-/10-/10-/10-/10-/10--------------|
b----------------------------|---------------------6/7/8-8-8----|
g----------------------------|------------------------------10-7|
d----------------------------|----------------------------------|X2
a----------------------------|----------------------------------|
e----------------------------|----------------------------------|

AQUI CAMBIA  \"NO VOY A DEJAR QUE ME UNDAS JAMAS\" PERO LA GUITARRA
2 SIGUE IGUAL

e-8/9/10-8/9/10-10-  ---------|
b------------------  ---------|
g------------------  -10-7----|
d------------------x3---------|X2
a------------------  ---------|
e------------------  ---------|

LUEGO VUELVE HACER LO MISMO QUE AL PRINCIPIO PERO SOLO UNA VEZ


e/10-/10-/10-/10-/10--/13-13-|-/10-/10-/10-/10-/10--------------|
b----------------------------|---------------------6/7/8-8-8----|
g----------------------------|------------------------------10-7|
d----------------------------|----------------------------------|X2
a----------------------------|----------------------------------|
e----------------------------|----------------------------------|

PUENTE

guitarra 2
e-----------------------------------|
b-----------------------------------|
g-----------------------------------|
d--8/---8-8/10-10---10-10-10-10-10--|
a--8/---8-8/10-10---10-10-10-10-10--|
e--6/---6-6/9--9----9--9--9--9--9---|

CORO  \"MIRA TODO EL BIEN QUE ME HAS HECHO...\"

AMBAS GUITARRAS

e-----------------------|
b-----------------------|
g-------5-5-------3-3---|
d--3-3--5-5--5-5--3-3---|X3
a--3-3--3-3--5-5--1-1---|
e--1-1-------3-3--------|


PUENTE

guitarra 2
e-----------------------------------|
b-----------------------------------|
g-----------------------------------|
d--8/---8-8/10-10---10-10-10-10-10--|
a--8/---8-8/10-10---10-10-10-10-10--|
e--6/---6-6/9--9----9--9--9--9--9---|

AQUI VUELVE AL VERSO IGUAL QUE AL PRINCIPIO

guitarra 2
e-------------------------------|
b-------------------------------|
g--7-7-7--9-9-9-----------------|
d--7-7-7--9-9-9--9-9-9--5-5-5---|X4
a--5-5-5--7-7-7--9-9-9--5-5-5---|
e----------------7-7-7--3-3-3---|

guitarra 1

e/10-/10-/10-/10-/10--/13-13-|-/10-/10-/10-/10-/10--------------|
b----------------------------|---------------------6/7/8-8-8----|
g----------------------------|------------------------------10-7|
d----------------------------|----------------------------------|X2
a----------------------------|----------------------------------|
e----------------------------|----------------------------------|


Y LUEGO EL PUENTE
guitarra 2
e-----------------------------------|
b-----------------------------------|
g-----------------------------------|
d--8/---8-8/10-10---10-10-10-10-10--|
a--8/---8-8/10-10---10-10-10-10-10--|
e--6/---6-6/9--9----9--9--9--9--9---|

CORO:\"MIRA TODO EL BIEN QUE ME HAS HECHO...\"

AMBAS GUITARRAS

e-----------------------|
b-----------------------|
g-------5-5-------3-3---|
d--3-3--5-5--5-5--3-3---|X3
a--3-3--3-3--5-5--1-1---|
e--1-1-------3-3--------|

Y LUEGO SIGUE DE NUEVO EL PUENTE,DESPUES UN INTERMEDIO CON EL
BAJO

DESPUES:

guitarra 2
e-------------------------------|
b-------------------------------|
g--7-7-7--9-9-9-----------------|
d--7-7-7--9-9-9--9-9-9--5-5-5---|X8
a--5-5-5--7-7-7--9-9-9--5-5-5---|
e----------------7-7-7--3-3-3---|


guitarra 1

e/10-/10-/10-/10-/10--/13-13-|-/10-/10-/10-/10-/10--------------|
b----------------------------|---------------------6/7/8-8-8----|
g----------------------------|------------------------------10-7|
d----------------------------|----------------------------------|X2
a----------------------------|----------------------------------|
e----------------------------|----------------------------------|

SUERTE Y DUDAS ALLI ESTA MI CORREO





Comments


Popular Panda tabs & chords
Quisiera No Pensar Bass Tabs
Abigail Chords
Lunar De Clavicula Chords
Nuestra Afliccin Chords
Fascinante Tabs
Los Malaventurados No Lloran 1 Tabs
Pathetica 5 Tabs
Porque Todavia Podemos Decir Una Vez Mas Tabs
No Tienes Oportunidad Contra Mi Antipatica Imaginacion Ukulele
Nuestra Afliccion Ukulele


Song lyrics



↑ Back to top | Tablatures and chords are parodies/interpretations of the original songs. You may use it for private study, scholarship, research or language learning purposes only
© 2014 AZChords.com Contact us | Privacy policy | DMCA | Add/correct tabs | Request tabs | Top 50 tabs