>
 >
Agradable Locura Temporal

Agradable Locura Temporal Guitar Tabs

Panda - Agradable Locura Temporal chords, tabs, tablatures, lyrics

Guitar lessons | Add/correct | Request | Top 50 tabs Artists:  A B C D E F G H I J K L M N O P Q R S T U V W X Y Z 0-9

Agradable Locura Temporal Guitar Tabs – Panda

CD, Sheet music, Poster

Do you like Agradable Locura Temporal? Share with your friends now
TabsTabs v2
AFINACIÓN: BEMOL
                   INTRO
                   R2D2

D#||-----------------------------------|------------------------------------|
A#||-----------------------------------|------------------------------------|
F#||------16--14--11-12--11-----9--11--|------16--14--11-12--11-------------|
C#||--12---------------------12--------|--12---------------------12-14--11--|
G#||-----------------------------------|------------------------------------|
D#||-----------------------------------|------------------------------------|

-----------------------------------|------------------------------------|
-----------------------------------|------------------------------------|
------16--14--11-12--11-----9--11--|------16--14--11-12--11-------------|
--12---------------------12--------|--12---------------------12-14--11--|
-----------------------------------|------------------------------------|
-----------------------------------|------------------------------------|

------------------------------------|----------------------------------------|
------------------------------------|----------------------------------------|
------------------------------------|----------------------------------------|
------12--14--12-14--12-16--12--14--|------12--14--12-14--12-16--12--14------|
--12--------------------------------|--12------------------------------------|
------------------------------------|----------------------------------------|
-----------------------------------|------------------------------|----|-----|
-----------------------------------|-----------------15-----------|----|-----|
------16--14--11-12--11-----9--11--|------16--14--11--------------|----|-----|
--12---------------------12--------|--12--------------------------|----|-----|
-----------------------------------|------------------------------|----|-----|
-----------------------------------|------------------------------|----|-----|
                                PEPE
 D#||---------------------------------|-----------------------------------|
A#||---------------------------------|------------------------------------|
F#||---------------------------------|------------------------------------|
C#||--7---7---7----7---7---7---7-7-7-|--7---7---7----7---7---7---7-7-7----|
G#||--5-x-5-x-5--x-5-x-5-x-5-x-5-5-5-|--5-x-5-x-5--x-5-x-5-x-5-x-5-5-5----|
D#||--5-x-5-x-5--x-5-x-5-x-5-x-5-5-5-|--5-x-5-x-5--x-5-x-5-x-5-x-5-5-5----|

---------------------------------|---------------------------------|
---------------------------------|---------------------------------|
---------------------------------|---------------------------------|
--4---4---4----4---4---4---4-4-4-|--4---4---4----4---4---4---4-4-4-|
--2-x-2-x-2--x-2-x-2-x-2-x-2-2-2-|--2-x-2-x-2--x-2-x-2-x-2-x-2-2-2-|
--2-x-2-x-2--x-2-x-2-x-2-x-2-2-2-|--2-x-2-x-2--x-2-x-2-x-2-x-2-2-2-|

---------------------------------|---------------------------------|
---------------------------------|---------------------------------|
---------------------------------|---------------------------------|
--5-x-5-x-5--x-5-x-5-x-5-x-5-5-5-|--5-x-5-x-5--x-5-x-5-x-5-x-5-5-5-|
--5-x-5-x-5--x-5-x-5-x-5-x-5-5-5-|--5-x-5-x-5--x-5-x-5-x-5-x-5-5-5-|
--3-x-3-x-3--x-3-x-3-x-3-x-3-3-3-|--3-x-3-x-3--x-3-x-3-x-3-x-3-3-3-|

---------------------------------|---------------------------|-------|-------|
---------------------------------|---------------------------|-------|-------|
---------------------------------|---------------------------|-------|-------|
--7---7---7----7---7---7---7-7-7-|--7---7---7----7-----------|-------|-------|
--5-x-5-x-5--x-5-x-5-x-5-x-5-5-5-|--5-x-5-x-5--x-5-----------|-------|-------|
--5-x-5-x-5--x-5-x-5-x-5-x-5-5-5-|--5-x-5-x-5--x-5-----------|-------|-------|
         EL VERSO ES PURO BAJO PERO CREO EL BAJO TOCA ESTO
SOLO CALCULEN EL TIEMPO
F#||---------------------------------|--------|
C#||---------------------------------|--------|
G#||-5-5-5-5-5-5-2-2-2-2-2-2-2----------------|ESTO LO TOCA HASTA EL CORO
D#||------------|--------------3-3-3-3-3-3-3--|
              PRE-CORO
INICIA PEPE CON ESTO Y LO TOCA X2(EL RASGEO HACIA ARRIBA SE OYE MEJOR)
-------7-------7-------7-------7--|-------7-------7-------7-------7--|
-------7-------7-------7-------7--|-------7-------7-------7-------7--|
--(x)--7--(x)--7--(x)--7--(x)--7--|--(x)--7--(x)--7--(x)--7--(x)--7--|
--(x)--9--(x)--9--(x)--9--(x)--9--|--(x)--9--(x)--9--(x)--9--(x)--9--|
----------------------------------|----------------------------------|
----------------------------------|----------------------------------|

-------3-------3-------3-------3--|-------3-------3-------3-------3--|
-------3-------3-------3-------3--|-------3-------3-------3-------3--|
--(x)--4--(x)--4--(x)--4--(x)--4--|--(x)--4--(x)--4--(x)--4--(x)--4--|
--(x)--5--(x)--5--(x)--5--(x)--5--|--(x)--5--(x)--5--(x)--5--(x)--5--|
----------------------------------|----------------------------------|
----------------------------------|----------------------------------|

-------5-------5-------5-------5--|-------5-------5-------5-------5--|-----|
-------7-------7-------7-------7--|-------7-------7-------7-------7--|-----|
--(x)--7--(x)--7--(x)--7--(x)--7--|--(x)--7--(x)--7--(x)--7--(x)--7--|-----|
--(x)--7--(x)--7--(x)--7--(x)--7--|--(x)--7--(x)--7--(x)--7--(x)--7--|-----|
----------------------------------|----------------------------------|-----|
----------------------------------|----------------------------------|-----|
       EN LA SEGUNDA VUELTA DE ESO R2D2 ENTRA CON ESTO

--7--------7--------7-----|--7--------7--------7-----|
-----7--------7-----------|-----7--------7-----------|
--------7--------7--------|--------7--------7--------|
--------------------------|--------------------------|
--------------------------|--------------------------|
--------------------------|--------------------------|

--10----------10----------10-----|--10----------10----------10-----|
------12----------12-------------|------12----------12-------------|
----------12----------12---------|----------12----------12---------|
---------------------------------|---------------------------------|
---------------------------------|---------------------------------|
---------------------------------|---------------------------------|

--12----------12----------12-----|--12----------12----------12-----|
------14----------14-------------|------14----------14-------------|
----------14----------14---------|----------14----------14---------|
---------------------------------|---------------------------------|
---------------------------------|---------------------------------|
---------------------------------|---------------------------------|
                  CORO
                  R2D2


--7--------7--------7-----|--7--------7--------7-----|
-----7--------7-----------|-----7--------7-----------|
--------7--------7--------|--------7--------7--------|
--------------------------|--------------------------|
--------------------------|--------------------------|
--------------------------|--------------------------|

--10----------10----------10-----|--10----------10----------10-----|
------12----------12-------------|------12----------12-------------|
----------12----------12---------|----------12----------12---------|
---------------------------------|---------------------------------|
---------------------------------|---------------------------------|
---------------------------------|---------------------------------|

--12----------12----------12-----|--12----------12----------12-----|
------14----------14-------------|------14----------14-------------|
----------14----------14---------|----------14----------14---------|
---------------------------------|---------------------------------|
---------------------------------|---------------------------------|
---------------------------------|---------------------------------|

--10----------10----------10-----|-------------------|
------12----------12-------------|-------------------|
----------12----------12---------|-------------------|
---------------------------------|-------------------|
---------------------------------|-------------------|
---------------------------------|-------------------|
                   PEPE
|---------------------------|
|---------------------------|
|---------------------------|
|--9--9--9--9-9--9-9--9--9--|
|--9--9--9--9-9--9-9--9--9--|
|--7--7--7--7-7--7-7--7--7--|

---------------------------|---------------------------|
---------------------------|---------------------------|
---------------------------|---------------------------|
--9--9--9--9-9--9-9--9--9--|--5--5--5--5-5--5-5--5--5--|
--9--9--9--9-9--9-9--9--9--|--5--5--5--5-5--5-5--5--5--|
--7--7--7--7-7--7-7--7--7--|--3--3--3--3-3--3-3--3--3--|

---------------------------|---------------------------|
---------------------------|---------------------------|
---------------------------|---------------------------|
--5--5--5--5-5--5-5--5--5--|--7--7--7--7-7--7-7--7--7--|
--5--5--5--5-5--5-5--5--5--|--7--7--7--7-7--7-7--7--7--|
--3--3--3--3-3--3-3--3--3--|--5--5--5--5-5--5-5--5--5--|

---------------------------|---------------------------|-------------------|
---------------------------|---------------------------|-------------------|
---------------------------|---------------------------|-------------------|
--7--7--7--7-7--7-7--7--7--|--5--5--5--5-5--5-5--5--5--|--7----------------|
--7--7--7--7-7--7-7--7--7--|--5--5--5--5-5--5-5--5--5--|--7----------------|
--5--5--5--5-5--5-5--5--5--|--3--3--3--3-3--3-3--3--3--|--5----------------|
LUEGO VIENE EL INTRO ES IGUAL ,VERSO TAMBIEN Y CORO IGUAL
LUEGO VA ESTO EN LA PARTE DE: LA ADICCIÓN EMOCIONAL........
          R2D2
--7--------7--------7-----|--5--------7--5-----------|
-----8--------8-----------|-----7-----------7--------|
--------7--------7--------|--------7-----------7-----|
--------------------------|--------------------------|
--------------------------|--------------------------|
--------------------------|--------------------------|

--7--------7--------7-----|--9---------10--9------------|
-----7--------7-----------|-----10------------10--------|
--------7--------7--------|---------9-------------9-----|
--------------------------|-----------------------------|LO TOCA 4 VECES
--------------------------|-----------------------------|
--------------------------|-----------------------------|
Y ALA 3RA REPETICIÓN DE LO DE R2D2 PEPE TOCA ESTO

--3--3--3--3--3--3--3-----|--------------------------|
--3--3--3--3--3--3--3-----|--7--7--7--7--7--7--7-----|
--4--4--4--4--4--4--4-----|--7--7--7--7--7--7--7-----|
--------------------------|--7--7--7--7--7--7--7-----|
--------------------------|--------------------------|
--------------------------|--------------------------|


--7--7--7--7--7--7--7-----|--5--5--5--5--5--5--5-----|
--7--7--7--7--7--7--7-----|--5--5--5--5--5--5--5-----|
--7--7--7--7--7--7--7-----|--6--6--6--6--6--6--6-----|
--------------------------|--------------------------|ESTO VA 2 VECES
--------------------------|--------------------------|
--------------------------|--------------------------|
Y ACABA CON EL INTRO
DUDAS, COMENTARIOS, MENTADAS DE MADRE E INVITACIÓNES A FIESTAS SWINGERS AL





Comments


Popular Panda tabs & chords
Dime Otra Vez Bass Tabs
Martirio De Otro Chords
Nuestra Afliccion 1 Chords
Los Malaventurados No Lloran Tabs
Porque Todavia Podemos Decir Una Vez Mas 2 Tabs
Si Supieras 1 Tabs
Solo A Terceros 4 Tabs
Sweater Geek Tabs
Dime Otra Vez Ukulele
Ya No Es Suficiente Lamentar Ukulele


Song lyrics



↑ Back to top | Tablatures and chords are parodies/interpretations of the original songs. You may use it for private study, scholarship, research or language learning purposes only
© 2014 AZChords.com Contact us | Privacy policy | DMCA | Add/correct tabs | Request tabs | Top 50 tabs