>
 >
3+1 2

3+1 2 Guitar Tabs

Panda - 3+1 2 chords, tabs, tablatures, lyrics

Guitar lessons | Add/correct | Request | Top 50 tabs Artists:  A B C D E F G H I J K L M N O P Q R S T U V W X Y Z 0-9

3+1 2 Guitar Tabs – Panda

CD, Sheet music, Poster

Do you like 3+1 2? Share with your friends now
Bass TabsTabsTabs v2Tabs v3
Tab por Adrian Cadena Medina

Muy buena cancion de panda les aseguro que esta perfecta

Saludos a UrIck PoMaReS aDan Y aL PiNcHe  LuIs anGeL
A TODOS LOS LA ESCUELA REFORMA Y AL CERESAS DE LA NUEVE jaja

bye y arriba pxndx divicion minuscula  y finde
-------------------------------------------------------------------------

Afinacion bemol:

  1D#|--------|
  2A#|--------|
  3F#|--------|
  4C#|--------|
  5G#|--------|
  6D#|--------|
-----------------------------------------------------------------------
Si por weyes no pueden afinarla asi solo toquen todo un traste abajo XD
------------------------------------------------------------------------

Intro

GI
-----10------10--------------|---10------10--------------|
--------10-------(8)--19--17-|-------10------(8)--19--17-|
-----------------------------|---------------------------|
-----------------------------|---------------------------|
-----------------------------|---------------------------|
-----------------------------|---------------------------|

GI
-----10------10--------------|---10------10--------------|
--------10-------(7)--19--17-|-------10------(8)--19--17-|
-----------------------------|---------------------------|
-----------------------------|---------------------------|
-----------------------------|---------------------------|
-----------------------------|---------------------------|

GI
---------------------------------------|
---------------------------------------|
--7~7h9-7--7-9h11b12-11-9-7-7-4--7-9-7-|
---------------------------------------|
---------------------------------------|
---------------------------------------|

GI
---------------------------------------|
-------------------12-10--8-7b8--------|
--7-9h11b12--11--9---------------11--9-|
---------------------------------------|
---------------------------------------|
---------------------------------------|

GI
e---------------------------------------|
b-15--14--15--17/0----------------------|
g---------------------------------------|
d---------------------------------------|
a---------------------------------------|
E---------------------------------------|

Verso

  ...Te intento  el destrozarme,   mentiras yo buscaba
GI y GII
e------------------------------------------------------|
b------------------------------------------------------|
g--7-7-7-7-7-7-7-7-7-7-7-7-7-7-------------------------|
d--7-7-7-7-7-7-7-7-7-7-7-7-7-7-7-9-9-9-9-9-9-9-9-9-9-9-|
a--5-5-5-5-5-5-5-5-5-5-5-5-5-5-7-9-9-9-9-9-9-9-9-9-9-9-|
E------------------------------5-7-7-7-7-7-7-7-7-7-7-7-|

    cosas   sabias que decir en mi defensa,
GI y GII
e--------------------------------------------|
b--------------------------------------------|
g-------------------------------7-7-7-7-7----|
d--7-7-7-7--5-xx5-xx5xx5xx5xx5--7-7-7-7-7-7--|
a--7-7-7-7--5-xx5-xx5xx5xx5xx5--5-5-5-5-5-7--|
E--5-5-5-5--3-xx3-xx3xx3xx3xx3------------5--|

    pero no lo aceptas  ya ya ya   me canse,
GI y GII
e--------------------------------------------|
b--------------------------------------------|
g--------------------------------------------|
d--9-9-9-9-9-9-9-9-9-9-7-xx7-xx7-7-5-5-5-5-5-|
a--9-9-9-9-9-9-9-9-9-9-7-xx7-xx7-7-5-5-5-5-5-|
E--7-7-7-7-7-7-7-7-7-7-5-xx5-xx5-5-3-3-3-3-3-|

      me canse de ti,  en tus mentiras yo cai
GI y GII
e------------------------------------------------------|
b------------------------------------------------------|
g------------------------------------------------------|
d--5-5-5-5-5-5-5-5-9x9x9x9x9-7x7x7x7x7x7-5-5-5x5-5x5--5|
a--5-5-5-5-5-5-5-5-9x9x9x9x9-7x7x7x7x7x7-5-5-5x5-5x5--5|
E--3-3-3-3-3-3-3-3-7x7x7x7x7-5x5x5x5x5x5-3-3-3x3-3x3--3|

   pero amortigue la caida pues del mejor aprendi
GI y GII
e------------------------------------------------------|
b------------------------------------------------------|
g------------------------------------------------------|
d-9x9x9x9x9x9x9x9x9x9x9x99-7x7x7x7x7x7x7x7x7-5-5-5x5-5-|
a-9x9x9x9x9x9x9x9x9x9x9x99-7x7x7x7x7x7x7x7x7-5-5-5x5-5-|
E-7x7x7x7x7x7x7x7x7x7x7x79-5x5x5x5x5x5x5x5x5-3-3-3x3-3-|


Coro

    Sabes bien se me dificulta hacerte saber
GI
e----------------------------------------------|
b----------------------------------------------|
g--7--7--7-7-7-7-7-7-7-7-7---------------------|
d--7--7--7-7-7-7-7-7-7-7-7--9-9-9-9-9-9-9-9-9--|
a--5--5--5-5-5-5-5-5-5-5-5--9-9-9-9-9-9-9-9-9--|
E---------------------------7-7-7-7-7-7-7-7-7--|

se me dificulta ver, nada es de tu agrado
GI
e-------------------------------------------------|
b-------------------------------------------------|
g-------------------------------------------------|
d---9-9-9-9-9-9-9-9-9--5-5-5-5-5-5-5-5-5-5-5-5-5--|
a---9-9-9-9-9-9-9-9-9--5-5-5-5-5-5-5-5-5-5-5-5-5--|
E---7-7-7-7-7-7-7-7-7--3-3-3-3-3-3-3-3-3-3-3-3-3--|

sabes que te amo y no lo aguanto no lo aguanto
GI
e-----------------------------------------------------|
b-----------------------------------------------------|
g-----------------------------------------------------|
d---5-5-5-5-5-5-5-5-5-5--9-9-9-9-9-9-9-7-7-7-7-7-7-7-7|
a---5-5-5-5-5-5-5-5-5-5--9-9-9-9-9-9-9-7-7-7-7-7-7-7-7|
E---3-3-3-3-3-3-3-3-3-3--7-7-7-7-7-7-7-5-5-5-5-5-5-5-5|

y fijate que los dos prometimos algo
GI
e----------------------------------------------|
b----------------------------------------------|
g--7--7--7-7-7-7-7-7-7-7-7---------------------|
d--7--7--7-7-7-7-7-7-7-7-7--9-9-9-9-9-9-9-9-9--|
a--5--5--5-5-5-5-5-5-5-5-5--9-9-9-9-9-9-9-9-9--|
E---------------------------7-7-7-7-7-7-7-7-7--|

que no se cumplio me lo hiciste otra vez ya no lo
GI
e-------------------------------------------------|
b-------------------------------------------------|
g-------------------------------------------------|
d---9-9-9-9-9-9-9-9-9--5-5-5-5-5-5-5-5-5-5-5-5-5--|
a---9-9-9-9-9-9-9-9-9--5-5-5-5-5-5-5-5-5-5-5-5-5--|
E---7-7-7-7-7-7-7-7-7--3-3-3-3-3-3-3-3-3-3-3-3-3--|

puedo cree ojala y un dia
GI
e------------------------------|
b------------------------------|
g------------------------------|
d-5-5-5-5-5-5-5-5-5-5-5-5-5-5--|
a-5-5-5-5-5-5-5-5-5-5-5-5-5-5--|
E-3-3-3-3-3-3-3-3-3-3-3-3-3-3--|

se     te       regrese
GI y GII
e-----------------------------------------------------|
b-----------------------------------------------------|
g-----------------------------------------------------|
d---------999----999---777------777---5-5-5-5-5-5-5-5-|
a---------999----999---777------777---5-5-5-5-5-5-5-5-|
E---------777----777---555------555---3-3-3-3-3-3-3-3-|

       quisiera poder odiarte, veria las cosas
GI y GII
e----------------------------------------------|
b----------------------------------------------|
g----7777777777--------777777777---------------|
d----7777777777--------777777777----99999999---|
a----5555555555--------555555555----99999999---|
E-----------------------------------77777777---|

  mas facil,     quisiera poder   quisiera poder
GI y GII
e-------------------------------------------------------|
b-------------------------------------------------------|
g-------------------------------------------------------|
d----999999---5555555555--------555555555--999999999-7-7|
a----999999---5555555555--------555555555--999999999-7-7|
E----777777---3333333333~-------333333333--777777777-5-5|


Verso 2
      Nunca reconocerias una cosa buena
GI y GII
e------------------------------------------------------|
b------------------------------------------------------|
g--7-7-7-7-7-7-7-7-7-7-7-7-7-7-------------------------|
d--7-7-7-7-7-7-7-7-7-7-7-7-7-7-7-9-9-9-9-9-9-9-9-9-9-9-|
a--5-5-5-5-5-5-5-5-5-5-5-5-5-5-7-9-9-9-9-9-9-9-9-9-9-9-|
E------------------------------5-7-7-7-7-7-7-7-7-7-7-7-|

     ni aunque este de enfrente y te corte la garganta,
GI y GII
e--------------------------------------------|
b--------------------------------------------|
g-------------------------------7-7-7-7-7----|
d--7-7-7-7--5-xx5-xx5xx5xx5xx5--7-7-7-7-7-7--|
a--7-7-7-7--5-xx5-xx5xx5xx5xx5--5-5-5-5-5-7--|
E--5-5-5-5--3-xx3-xx3xx3xx3xx3------------5--|

      eso seria interesanta (ya ya ya  todo termino)
GI y GII
e--------------------------------------------|
b--------------------------------------------|
g--------------------------------------------|
d--9-9-9-9-9-9-9-9-9-9-7-xx7-xx7-7-5-5-5-5-5-|
a--9-9-9-9-9-9-9-9-9-9-7-xx7-xx7-7-5-5-5-5-5-|
E--7-7-7-7-7-7-7-7-7-7-5-xx5-xx5-5-3-3-3-3-3-|

     Todo termino,  te perdiste del mejor,
GI y GII
e------------------------------------------------------|
b------------------------------------------------------|
g------------------------------------------------------|
d--5-5-5-5-5-5-5-5-9x9x9x9x9-7x7x7x7x7x7-5-5-5x5-5x5--5|
a--5-5-5-5-5-5-5-5-9x9x9x9x9-7x7x7x7x7x7-5-5-5x5-5x5--5|
E--3-3-3-3-3-3-3-3-7x7x7x7x7-5x5x5x5x5x5-3-3-3x3-3x3--3|

    y siempre te dije muchas veces que yo soy el mejor
GI y GII
e------------------------------------------------------|
b------------------------------------------------------|
g------------------------------------------------------|
d-9x9x9x9x9x9x9x9x9x9x9x99-7x7x7x7x7x7x7x7x7-5-5-5x5-5-|
a-9x9x9x9x9x9x9x9x9x9x9x99-7x7x7x7x7x7x7x7x7-5-5-5x5-5-|
E-7x7x7x7x7x7x7x7x7x7x7x79-5x5x5x5x5x5x5x5x5-3-3-3x3-3-|



Coro (Se repite lo misno)


Solo

GI
---------------------------------------|
---------------------------------------|
--7~7h9-7--7-9h11b12-11-9-7-7-4--7-9-7-|
---------------------------------------|
---------------------------------------|
---------------------------------------|

GI
---------------------------------------|
-------------------12-10--8-7b8--------|
--7-9h11b12--11--9---------------11--9-|
---------------------------------------|
---------------------------------------|
---------------------------------------|

GI
e------------------------|--------------|
b--15--14--12--10h12--10-|--------------|
g------------------------|---12--11--9--|
d------------------------|--------------|
a------------------------|--------------|
E------------------------|--------------|

GI
e---------------------------------------|
b---------------------------------------|
g--7~~~7h9-7--7-9h11b12----11-9-7-7-----|
d---------------------------------------|
a---------------------------------------|
E---------------------------------------|



Outro
     Sabes bien se me dificulta hacerte saber
GI
e----------------------------------------------|
b----------------------------------------------|
g--7--7--7-7-7-7-7-7-7-7-7---------------------|
d--7--7--7-7-7-7-7-7-7-7-7--9-9-9-9-9-9-9-9-9--|
a--5--5--5-5-5-5-5-5-5-5-5--9-9-9-9-9-9-9-9-9--|
E---------------------------7-7-7-7-7-7-7-7-7--|

    se me dificulta ver, nada es de tu agrado
GI
e-------------------------------------------------|
b-------------------------------------------------|
g-------------------------------------------------|
d---9-9-9-9-9-9-9-9-9--5-5-5-5-5-5-5-5-5-5-5-5-5--|
a---9-9-9-9-9-9-9-9-9--5-5-5-5-5-5-5-5-5-5-5-5-5--|
E---7-7-7-7-7-7-7-7-7--3-3-3-3-3-3-3-3-3-3-3-3-3--|

   sabes que te amo y no lo aguanto no lo aguanto
GI
e-----------------------------------------------------|
b-----------------------------------------------------|
g-----------------------------------------------------|
d---5-5-5-5-5-5-5-5-5-5--9-9-9-9-9-9-9-7-7-7-7-7-7-7-7|
a---5-5-5-5-5-5-5-5-5-5--9-9-9-9-9-9-9-7-7-7-7-7-7-7-7|
E---3-3-3-3-3-3-3-3-3-3--7-7-7-7-7-7-7-5-5-5-5-5-5-5-5|

   y fijate que los dos prometimos algo que no
GI
e----------------------------------------------|
b----------------------------------------------|
g--7-7-7-7-7-7-7-7-7-7-7-7-7-7-7-7-------------|
d--7-7-7-7-7-7-7-7-7-7-7-7-7-7-7-7-7-7-7-7-7-7-|
a--5-5-5-5-5-5-5-5-5-5-5-5-5-5-5-5-7-7-7-7-7-7-|
E----------------------------------9-9-9-9-9-9-|

  se cumplio me lo hiciste otra vez ya no lo puedo
GI
e--------------------------------------------------|
b--------------------------------------------------|
g--------------------------------------------------|
d-9-9-9-9-9-9-9-9-9-9-9--5-5-5-5-5-5-5-5-5-5-5-5-5-|
a-9-9-9-9-9-9-9-9-9-9-9--5-5-5-5-5-5-5-5-5-5-5-5-5-|
E-7-7-7-7-7-7-7-7-7-7-7--3-3-3-3-3-3-3-3-3-3-3-3-3-|

  creer ojala y un dia   se   te    re  gre  se
GI
e---------------------------------------------------|
b---------------------------------------------------|
g---------------------------------------------------|
d-5-5-5-5-5-5-5-5-5-5-----9~~~------7~~~--------5~~-|
a-5-5-5-5-5-5-5-5-5-5-----9~~~------7~~~--------5~~-|
E-3-3-3-3-3-3-3-3-3-3-----7~~~------5~~~--------3~~-|





Comments


Popular Panda tabs & chords
Los Malaventurados No Lloran Bass Tabs
Buen DíA Tabs
Cuando No Es Como Deberia Ser 3 Tabs
El Gran Mcgee 1 Tabs
Fascinante Tabs
Mi Muneca 1 Tabs
Muceca (Solo) Tabs
Nunca Nadie Nos Podra Parar Tabs
Frauen Und Manner Ukulele
Ya No Es Suficiente Lamentar Ukulele


Song lyrics



↑ Back to top | Tablatures and chords are parodies/interpretations of the original songs. You may use it for private study, scholarship, research or language learning purposes only
© 2014 AZChords.com Contact us | Privacy policy | DMCA | Add/correct tabs | Request tabs | Top 50 tabs