>
 >
3+1 1

3+1 1 Guitar Tabs

Panda - 3+1 1 chords, tabs, tablatures, lyrics

Guitar lessons | Add/correct | Request | Top 50 tabs Artists:  A B C D E F G H I J K L M N O P Q R S T U V W X Y Z 0-9

3+1 1 Guitar Tabs – Panda

CD, Sheet music, Poster

Do you like 3+1 1? Share with your friends now
Bass TabsTabsTabs v2Tabs v3
-------------------------------------------------------------------------------
                             3+1 - PxNDx 
-------------------------------------------------------------------------------

Tuning: Eb

Intro

Gutar 1

eb|-------------------------------|
Bb|-------------------------------|
Gb|--7----------------------------|
Db|--7--9---5---9----7------------|
Ab|--5--9---5---9----7------------|
Eb|-----7---3---7----5------------|

Guitar 2
                                x4
eb|---------15-14------------------------------------------------------------|
Bb|-------15------15---------------------------------------------------------|
Gb|----14--------------------------------------------------------------------|
Db|-12-----------------------------------------------------------------------|
Ab|--------------------------------------------------------------------------|
Eb|--------------------------------------------------------------------------|

Guitar 2

eb|--------------------------------------------------------------------------|
Bb|--------5-------5-7---8-7-5-----------5-----------5-7--8-7----------------|
Gb|---7------7---7--------------7-7-4-7-----7-----7--------------------------|
Db|--------------------------------------------------------------------------|
Ab|--------------------------------------------------------------------------|
Eb|--------------------------------------------------------------------------|

eb|-------7-5-----------10--9--10-----12-10-9--------------------------------|
Bb|-5----------8-7^-7-5-----------------------12-10-9------------------------|
Gb|---7-----------------------------------------------12-11-9----------------|
Db|-----------------------------------------------------------9-7------------|
Ab|--------------------------------------------------------------------------|
Eb|-------------------------------------------------------------------------|

                                   x2
eb|-----------------------------|
Bb|-----------------------------|
Gb|--7--------------------------|
Db|--7---9-----7-----5----------|
Ab|--5---9-----7-----5----------|
Eb|------7-----5-----3----------|
"Te encantˇ el destrozarme ..."                

               x2
eb|-------------------------------|
Bb|-------------------------------|
Gb|-------------------------------| * 8 veces !!(ESCUCHEN LA ROLA)
Db|*4--*7--5----------------------|
Ab|*4--*7--5----------------------|
Eb|*2--*5--3----------------------|
"Me cansÚ de ti ..."

CORO 
Cheken la ritmica en la rola !!
        
          La 1¬ ves es asi
eb|----------------------------------|
Bb|----------------------------------|
Gb|7---------------------------------|
Db|7--9--5--9--7---------------------|
Ab|5--9--5--9--7---------------------|
Eb|---7--3--7--5---------------------|
"Sabes bn se me dificulta ...."
         
          La 2¬ es casi iwal
eb|----------------------------------|
Bb|----------------------------------|
Gb|7---------------------------------|
Db|7--9--5--9--7--5------------------|
Ab|5--9--5--9--7--5------------------|
Eb|---7--3--7--5--3------------------|
"Fijate q los dos ....."

eb|----------------------------------|
Bb|----------------------------------|
Gb|7---------------------------------|
Db|7--9--5--9--7---------------------|
Ab|5--9--5--9--7---------------------|
Eb|---7--3--7--5---------------------|
"Quisiera poder ODIARTE !! ...."

eb|-----------------------------|
Bb|-----------------------------|
Gb|--7--------------------------|
Db|--7------9-----7-----5-------|
Ab|--5------9------7-----5------|
Eb|---------7-------5-----3-----|
"Nunca reconocerias ..."

              x2
eb|-------------------------------|
Bb|-------------------------------|
Gb|-------------------------------|  
Db|4--7--5------------------------|
Ab|4--7--5------------------------|
Eb|2--5--3------------------------|
"Todo termino..."

Coro

eb|----------------------------------|
Bb|----------------------------------|
Gb|7---------------------------------|
Db|7--9--5--9--7---------------------|
Ab|5--9--5--9--7---------------------|
Eb|---7--3--7--5---------------------|
"Sabes bn se me dificulta ...."
         
eb|----------------------------------|
Bb|----------------------------------|
Gb|7---------------------------------|
Db|7--9--5--9--7--5------------------|
Ab|5--9--5--9--7--5------------------|
Eb|---7--3--7--5--3------------------|
"Fijate q los dos ....."


Guitar 1
            La 1¬ vez es asi
eb|------------------------------------|
Bb|------------------------------------|
Gb|--7---------------------------------|
Db|--7---9-----5-----9----7------------|
Ab|--5---9-----5-----9----7------------|
Eb|------7-----3-----7----5------------|
           
             La 2¬ va asi
eb|----------------------------------|
Bb|----------------------------------|
Gb|--7-------------------------------|
Db|--7---9-----5---------------------|
Ab|--5---9-----5---------------------|
Eb|------7-----3---------------------|


Guitar 2

                              La primera es asi
eb|------------------------------------------------------------------|
Bb|--------5-------5-7---8-7-5-----------5-----------5-7--8-7-5------|
Gb|---7------7---7--------------7-7-4-7-----7-----7-------------7----|
Db|------------------------------------------------------------------|
Ab|------------------------------------------------------------------|
Eb|------------------------------------------------------------------|

eb|-------7-5-----------10--9--7--5^-5-------------------------------|
Bb|-----------8-7^-7-5-------------------8-7-5------------------------|
Gb|-------------------------------------------------------------------|
Db|-------------------------------------------------------------------|
Ab|-------------------------------------------------------------------|
Eb|-------------------------------------------------------------------|

Despues es lo mismo pero se corta a la mitad .. escuchen la rola

El verso acustico de al final se oye medio raro pero creo q es asi

eb|----------------------------------|
Bb|----------------------------------|
Gb|7---------------------------------|
Db|7--9--5--9--7---------------------|
Ab|5--9--5--9--7---------------------|
Eb|---7--3--7--5---------------------|
"Sabes bien ..."
eb|----------------------------------|
Bb|----------------------------------|
Gb|7---------------------------------|
Db|7--9--5--9--7--5------------------|
Ab|5--9--5--9--7--5------------------|
Eb|---7--3--7--5--3------------------|
"Fijate que los dos ..."

Buenooo eso es toodo .. espero q este bien jeje !! 
Arriba PXNDX  (La banda y nuestro equipo de fut jaja )!!! 
=============================================================================





Comments


Popular Panda tabs & chords
Espiritu Pionero Bass Tabs
Tus Palabras Punzocortantes Bass Tabs
Cuando No Es Como Deberia Ser 2 Chords
Dime Otra Vez Chords
Quinta Real 1 Chords
10 Lagartijos Tabs
El Cuello Perfecto Tabs
Mi Muneca Intro Tabs
Narcisista Por Excelencia 1 Tabs
Cita En El Quirofano Ukulele


Song lyrics



↑ Back to top | Tablatures and chords are parodies/interpretations of the original songs. You may use it for private study, scholarship, research or language learning purposes only
© 2014 AZChords.com Contact us | Privacy policy | DMCA | Add/correct tabs | Request tabs | Top 50 tabs