» » »

Panda, 3+1 Tabs (ver.1)

Artists:  A B C D E F G H I J K L M N O P Q R S T U V W X Y Z # 

3+1 Tabs (ver.1)

Panda Tabs
 Rating:
4/5 (4 votes)
3+1 lessons Tabs too difficult? Try these video lessons and learn fast
                3+1----------PXNDX
Sinfonia Soledad

lo saque en vivo creo que es casi igual que la version original

intro
|------9-14--13-12-| 
|----9-------------| 
|------------------| 
|-11---------------| 
|------------------| 
|------------------|x4

|-------------------------------|--------------5--4-----------|
|------------4-6-7-6-4---------4|-4-6-7-6-4---------7--7--6--4|
|-666666-8-6-----------66----6--|-----------5-----------------|
|--------------------------8----|-----------------------------|
|-------------------------------|-----------------------------|
|-------------------------------|-----------------------------|

|-9-8-11-111111101010999888777666555444333222-|
|---------------------------------------------|
|---------------------------------------------|
|---------------------------------------------|
|---------------------------------------------|
|---------------------------------------------|

verso
|-------------------------------------------------|
|-------------------------------------------------|
|-77777777----------------------------------------|
|-77777777-99999999-xxx55555555-99999999-77777777-|
|-55555555-99999999-xxx55555555-99999999-77777777-|
|----------77777777-xxx33333333-77777777-55555555-|

en tus mentiras...
|----------------------------------------|
|----------------------------------------|
|----------------------------------------|
|-4-4-4-4-4-7-7-7-7-7-5-5-5-5-5-55555555-|
|-4-4-4-4-4-7-7-7-7-7-5-5-5-5-5-55555555-|
|-2-2-2-2-2-5-5-5-5-5-3-3-3-3-3-33333333-|x2

coro
|-------------------------------------------------------------|
|-------------------------------------------------------------|
|-7-7-7-7-7-7777----------------------------------------------|
|-7-7-7-7-7-7777-9-9-9-9-9-9999-555555555-999999999-777777777-|
|-5-5-5-5-5-5555-9-9-9-9-9-9999-555555555-999999999-777777777-|
|----------------7-7-7-7-7-7777-333333333-777777777-555555555-|

y fijate...
|-----------------------------------------------------------|
|-----------------------------------------------------------|
|-7-7-7-7-7-7777--------------------------------------------|
|-7-7-7-7-7-7777-9-9-9-9-9-9999-555555555-999999999-7-7-5-5-|
|-5-5-5-5-5-5555-9-9-9-9-9-9999-555555555-999999999-7-7-5-5-|
|----------------7-7-7-7-7-7777-333333333-777777777-5-5-3-3-|

quisiera poder...
|----------------------------------------|
|----------------------------------------|
|-77777777-------------------------------|
|-77777777-999999999-777777777-555555555-|
|-55555555-999999999-777777777-555555555-|
|----------777777777-555555555-333333333-|

verso
|-------------------------------------------------|
|-------------------------------------------------|
|-77777777----------------------------------------|
|-77777777-99999999-xxx55555555-99999999-77777777-|
|-55555555-99999999-xxx55555555-99999999-77777777-|
|----------77777777-xxx33333333-77777777-55555555-|

te perdiste del...
|----------------------------------------|
|----------------------------------------|
|----------------------------------------|
|-4-4-4-4-4-7-7-7-7-7-5-5-5-5-5-55555555-|
|-4-4-4-4-4-7-7-7-7-7-5-5-5-5-5-55555555-|
|-2-2-2-2-2-5-5-5-5-5-3-3-3-3-3-33333333-|x2

coro
|-------------------------------------------------------------|
|-------------------------------------------------------------|
|-7-7-7-7-7-7777----------------------------------------------|
|-7-7-7-7-7-7777-9-9-9-9-9-9999-555555555-999999999-777777777-|
|-5-5-5-5-5-5555-9-9-9-9-9-9999-555555555-999999999-777777777-|
|----------------7-7-7-7-7-7777-333333333-777777777-555555555-|

y fijate...
|-----------------------------------------------------------|
|-----------------------------------------------------------|
|-7-7-7-7-7-7777--------------------------------------------|
|-7-7-7-7-7-7777-9-9-9-9-9-9999-555555555-999999999-7-7-5-5-|
|-5-5-5-5-5-5555-9-9-9-9-9-9999-555555555-999999999-7-7-5-5-|
|----------------7-7-7-7-7-7777-333333333-777777777-5-5-3-3-|

outro
|------9-14--13-12-| 
|----9-------------| 
|------------------| 
|-11---------------| 
|------------------| 
|------------------|x4

|-------------------------------|--------------5--4-----------|
|------------4-6-7-6-4---------4|-4-6-7-6-4---------7--7--6--4|
|-666666-8-6-----------66----6--|-----------5-----------------|
|--------------------------8----|-----------------------------|
|-------------------------------|-----------------------------|
|-------------------------------|-----------------------------|

|-9-8-11-111111101010999888777666555444333222-|
|---------------------------------------------|
|---------------------------------------------|
|---------------------------------------------|
|---------------------------------------------|
|---------------------------------------------|
            
Submit corrections

comments powered by Disqus
↑ Back to top | Panda Tabs for 3+1. Lyrics for acoustic guitar and electric guitar. Tablatures and chords are parodies/interpretations of the original songs. You may use it for private study, scholarship, research or language learning purposes only