>
 >
Water

Water Guitar Tabs

Pain Of Salvation - Water chords, tabs, tablatures, lyrics

Guitar lessons | Add/correct | Request | Top 50 tabs Artists:  A B C D E F G H I J K L M N O P Q R S T U V W X Y Z 0-9

Water Guitar Tabs – Pain Of Salvation

CD, Sheet music, Poster

Do you like Water? Share with your friends now
Tabs
Gtr I (D A D G B E) - 'Distortion'
Gtr II (E A D G B E) - 'Crunch'
Gtr III (D A D G B E) - 'Clean'
Gtr IV (E A D G B E) - 'Clean'
Gtr V (D A D G B E) - 'Solo Guitar'

  Q=73
 11/8
  Gtr I
  S S S S S S S S S S S S S S S S S S S S S S
|---------------------------------------------|
|---------------------------------------------|
|-3---3-3---3---3-3---3---3-3---3---3-3---3---|
|-3---3-3---3---3-3---3---3-3---3---3-3---3---|
|---------------------------------------------|
|-2---2-2---2---2-2---2---2-2---2---2-2---2---|


 17/16
                                        ~~~~~~~
   Q           Q           S S  S  E    E    E
|--------------0----------------------------------|
|--------------3----------------------------------|
|-(2)----------2------------------------3----2----|
|--0----------(0)---------------------------------|
|--0-------------------------0--------------------|
|--0----------------------/3----3--1--------------|
|
| Gtr II
|  S   S S  S  S   S  S S  S S  S  S S  S S  S  S
|-----12---12-----12-12---12---12-12---12---12-12-|
|-----10---10-----10-10---10---10-10---10---10-10-|
|------7----7------7--7----7----7--7----7----7--7-|
|-------------------------------------------------|
|-------------------------------------------------|
|-------------------------------------------------|


                                       ~~~~~~~
   Q           Q          S  S S  E    E    E
|--------------0----------------------------------|
|--------------3----------------------------------|
|-(2)----------2-----------------------3----2-----|
|--0----------(0)---------------------------------|
|--0-------------------------0--------------------|
|--0---------------------/3----3--1---------------|
|
|  S   S S  S  S  S  S S  S  S S  S S  S  S S  S
|-----12---12-12----12---12-12---12---12-12---12--|
|-----10---10-10----10---10-10---10---10-10---10--|
|------7----7--7-----7----7--7----7----7--7----7--|
|-------------------------------------------------|
|-------------------------------------------------|
|-------------------------------------------------|


                                        ~~~~~~~
   Q           Q           S  S S  E    E    E
|--------------0----------------------------------|
|--------------3----------------------------------|
|-(2)----------2------------------------3----2----|
|--0----------(0)---------------------------------|
|--0--------------------------0-------------------|
|--0----------------------/3----3--1--------------|
|
|  S   S  S S  S  S  S  S  S  S S  S  S S  S S  S
|-----12-12---12----12-12----12---12-12---12---12-|
|-----10-10---10----10-10----10---10-10---10---10-|
|------7--7----7-----7--7-----7----7--7----7----7-|
|-------------------------------------------------|
|-------------------------------------------------|
|-------------------------------------------------|


                                        ~~~~~~~
   Q           Q           S S  S  E    E    E
|--------------0----------------------------------|
|--------------3----------------------------------|
|-(2)----------2------------------------3----2----|
|--0----------(0)---------------------------------|
|--0-------------------------0--------------------|
|--0----------------------/3----3--1--------------|
|
|  S   S S  S  S   S  S S  S S  S  S S  S S  S  S
|-----12---12-----12-12---12---12-12---12---12-12-|
|-----10---10-----10-10---10---10-10---10---10-10-|
|------7----7------7--7----7----7--7----7----7--7-|
|-------------------------------------------------|
|-------------------------------------------------|
|-------------------------------------------------|


 4/4
  W                           +W
|---------------------------|-------------------------------|
|---------------------------|-------------------------------|
|---------------------------|-------------------------------|
|-0-------------------------|-(0)---------------------------|
|-0-------------------------|-(0)---------------------------|
|-0-------------------------|-(0)---------------------------|
|
| W                           +W
|-0-------------------------|-(0)---------------------------|
|-3-------------------------|-(3)---------------------------|
|-2-------------------------|-(2)---------------------------|
|-0-------------------------|-(0)---------------------------|
|---------------------------|-------------------------------|
|---------------------------|-------------------------------|
|
| Gtr III
| E S S S S S E E S S S S S    E  S S S S S E E  S  S S S S
|---0-0-0-0-0-0-0-----------|-----0-0-0-0-0-0-0-------------|
|---0-0-0-0-0-0-0-----------|-----0-0-0-0-0-0-0-------------|
|---6-6-6-6-6-6-6-----------|-----6-6-6-6-6-6-6-----------2-|
|---7-7-7-7-7-7-7-----------|-----7-7-7-7-7-7-7---------2---|
|---5-5-5-5-5-5-5---2s4-2p0-|-----5-5-5-5-5-5-5-(0)-2s4-----|
|-0---------------0-2s4-2p0-|--0-----------------0----------|


  Gtr III
  E S S S S S E E S S S S S   E S S S S S E E  S  S S S S
|---0-0-0-0-0-0-0-----------|---0-0-0-0-0-0-0--------------|
|---0-0-0-0-0-0-0-----------|---0-0-0-0-0-0-0--------------|
|---6-6-6-6-6-6-6-----------|---6-6-6-6-6-6-6-----------2--|
|---7-7-7-7-7-7-7-----------|---7-7-7-7-7-7-7---------2----|
|---5-5-5-5-5-5-5---2s4-2p0-|---5-5-5-5-5-5-5-(0)-2s4------|
|-0---------------0-2s4-2p0-|-0----------------0-----------|


  E S S S S S E   E  S S S S S   E     S S S S S E  E    S  S S S S
|---0-0-0-0-0-0---0------------|-------0-0-0-0-0-0--0---------------|
|---0-0-0-0-0-0---0------------|-------0-0-0-0-0-0--0---------------|
|---6-6-6-6-6-6---6------------|-------6-6-6-6-6-6--6-------------2-|
|---7-7-7-7-7-7---7------------|-------7-7-7-7-7-7--7-----------2---|
|---5-5-5-5-5-5---5----2s4-2p0-|-------5-5-5-5-5-5--5---(0)-2s4-----|
|-0------------------0-2s4-2p0-|-0-----------------------0----------|
|
|   "I've always loved..."
|
| Gtr IV
|                      ~~            ~~~~~~~~~~~~~~~~~~~
| E S E   E   E a E.   Q         S a H             +Q..
|------------------------------|------------------------------------|
|------------------------------|------------------------------------|
|---------------4s6------------|-4-4s6-------------(6)--------------|
|---4-4---6---6--------7-------|------------------------------------|
|------------------------------|------------------------------------|
|------------------------------|------------------------------------|


  E S S S S  S  E   E S S S S  S     E   S S S S S E E  S  S  S  S S
|---0-0-0-0--0--0---0-------------|------0-0-0-0-0-0-0---------------|
|---0-0-0-0--0--0---0-------------|------0-0-0-0-0-0-0---------------|
|---6-6-6-6--6--6---6-------------|------6-6-6-6-6-6-6-------------2-|
|---7-7-7-7--7--7---7-------------|------7-7-7-7-7-7-7-----------2---|
|---5-5-5-5--5--5---5---2s4-2p=0--|------5-5-5-5-5-5-5-(0)-2s=4------|
|-0-------------------0-2s4-2p=0--|--0------------------0------------|
|
|                     ~~~~~~~~~~~~             ~~~~~~~~~~~~~~~~~~
| E S S S S  S  E a E Q       +S     S E   E   H             +E.
|---------------------------------|----------------------------------|
|---5-5-5-------------------------|----------------------------------|
|---------4-(4)-4-4s6-------------|----------------------------------|
|---------------------7-------(7)-|-/6-4---4s==2-------------(2)-----|
|---------------------------------|----------------------------------|
|---------------------------------|----------------------------------|


  E S S S S S E   E  S S S S S   E     S S S  S    S E  E  S  S S S S
|---0-0-0-0-0-0---0------------|-------0-0-0--0----0-0--0--------------|
|---0-0-0-0-0-0---0------------|-------0-0-0--0----0-0--0--------------|
|---6-6-6-6-6-6---6------------|-------6-6-6--6----6-6--6-----------2--|
|---7-7-7-7-7-7---7------------|-------7-7-7--7----7-7--7---------2----|
|---5-5-5-5-5-5---5----2s4-2p0-|-------5-5-5--5----5-5--5-(0)-2s4------|
|-0------------------0-2s4-2p0-|-0-------------------------0-----------|
|
|                      ~~            ~~~~~~~~~~~~    ~~
| E S E   E   E a E.   Q         S a Q       +S  a S Q.         S S S
|------------------------------|--------------------------------5------|
|------------------------------|-3-3s5-------(5)-5s7s5------------5----|
|---------------4s6------------|------------------------------------2--|
|---4-4---6---6--------7-------|---------------------------------------|
|------------------------------|---------------------------------------|
|------------------------------|---------------------------------------|


  E S S S S S E   E S S S S  S     E   S S S S S E E  S  S  S  S S
|---0-0-0-0-0-0---0-------------|------0-0-0-0-0-0-0---------------|
|---0-0-0-0-0-0---0-------------|------0-0-0-0-0-0-0---------------|
|---6-6-6-6-6-6---6-------------|------6-6-6-6-6-6-6-------------2-|
|---7-7-7-7-7-7---7-------------|------7-7-7-7-7-7-7-----------2---|
|---5-5-5-5-5-5---5---2s4-2p=0--|------5-5-5-5-5-5-5-(0)-2s=4------|
|-0-----------------0-2s4-2p=0--|--0------------------0------------|
|
|                   ~~~~~~~~~~~~             ~~~~~~~~~~~~~~~~~~
| E S E   E   E a E Q       +S     S E   E   H             +E.
|-------------------------------|----------------------------------|
|---5-5-------------------------|----------------------------------|
|---------4---4-4s6-------------|----------------------------------|
|-------------------7-------(7)-|-/6-4---4s==2-------------(2)-----|
|-------------------------------|----------------------------------|
|-------------------------------|----------------------------------|


 11/16                 7/8
   E   S S E.   E   E       E   S S E.  E   E  E      S
|------0-0-0--------0-|---------0-0-0-------0---------0-|
|------0-0-0--------0-|---------0-0-0-------0---------0-|
|------6-6-6--------9-|---------6-6-6-------9---------9-|
|------7-7-7-------11-|---------7-7-7-------9---------9-|
|------5-5-5---(9)----|---------5-5-5--(7)----(9)-------|
|--0------------------|-----0---------------------------|
|
| Gtr V
|    - volume swell (louder/softer)
 x   - on rhythm slash represents muted slash
 o   - on rhythm slash represents single note slash

Misc Legend
-----------
 |  - bar
||  - double bar
||o - repeat start
o|| - repeat end
*|  - double bar (ending)
 :  - bar (freetime)
 $  - Segno
 &  - Coda
Tempo markers -  = BPM(8/16=s8/s16), where s8 = swing 8ths, s16 = swing 16ths





Comments


Popular Pain Of Salvation tabs & chords
Dedication Bass Tabs
1979 Chords
Ashes Chords
Sisters Chords
To The Shoreline Chords
Falling Tabs
Reconciliation Tabs
Second Love Tabs
Softly She Cries Tabs
Second Love Ukulele


Song lyrics



↑ Back to top | Tablatures and chords are parodies/interpretations of the original songs. You may use it for private study, scholarship, research or language learning purposes only
© 2014 AZChords.com Contact us | Privacy policy | DMCA | Add/correct tabs | Request tabs | Top 50 tabs