» » »

Pain Of Salvation, Scarsick Tabs (ver.1)

Artists:  A B C D E F G H I J K L M N O P Q R S T U V W X Y Z # 

Scarsick Tabs (ver.1)

Pain Of Salvation Tabs
 Rating:
4/5 (4 votes)
Scarsick lessons Tabs too difficult? Try these video lessons and learn fast
                Pain Of Salvation - Scarsick

This song's guitar parts are all about texture. I couldn't even be bothered
to tab out a lot of the parts, because they're either buried in the mix, or
there are so many of them that are really playing nothing. I haven't included
the order of the riffs or anything, you'll have to figure that out
yourselves. And it should be really goddamn easy to do that. I used a couple
of live videos to confirm hand positions in the intro and other riffs.

So basically, the trick to this song is to "feel" it. This isn't your typical
"precise" prog-metal song. The guitars are almost purely textural in this
song.

7-string tuned to A E A D G B E

Riff 1
|------------------------------------|
|------------------------------------|
|------------------------------------|
|------------------------------------|
|------------------------------------|
|----0-5h6---0-5h6---0-5h6---5---6---|
|--0-------0-------0-------0---0-----|

|------------------------------------|
|------------------------------------|
|------------------------------------|
|------------------------------------|
|------------------------------------|
|----0-5h6---0-5h6---0-5h6---10---9--|
|--0-------0-------0-------0----0----|

Riff 2
|------------------------------------|
|------------------------------------|
|------------------------------------|
|------------------------------------|
|------7/8-----7/8-----7/8---7---8---|
|------5/6-----5/6-----5/6---5---6---|
|--0-0-----0-0-----0-0-----0---0-----|

|------------------------------------|
|------------------------------------|
|------------------------------------|
|------------------------------------|
|------7/8-----7/8-----7/8---12---11-|
|------5/6-----5/6-----5/6---10---9--|
|--0-0-----0-0-----0-0-----0----0----|

Riff 3
|------------------------------------|
|------------------------------------|
|------------------------------------|
|------------------------------------|
|------------------------------------|
|------5-3-----5-3-----5-3---5---3---|
|--0-0-------0-------0-----0---0-----|

|------------------------------------|
|------------------------------------|
|------------------------------------|
|------------------------------------|
|------------------------------------|
|------5-3-----5-3-----5-3---10---9--|
|----0-------0-------0-----0----0----|

Riff 4
|------------------------------------|
|------------------------------------|
|------------------------------------|
|--9/10\8---7/9-----9/10\9---7-------|
|------------------------------------|
|--7/8-\7---5/7-----7/8-\7---5-------|
|---------0------00--------0---0---0-|

|------------------------------------|
|------------------------------------|
|------------------------------------|
|--9/10\8---7/9-----9/10\9---9-------|
|------------------------------------|
|--7/8-\7---5/7-----7/8-\7---7-------|
|---------0------00--------0---0---0-|

Verse Fills
1
|-----------------|
|-----------------|
|-----------------|
|-----------------|
|--x-x-x-x-x-x-x--|
|--x-x-x-x-x-x-x--|
|--x-x-x-x-x-x-x--|

2
|----------10~~~--|
|--8b10-----------|
|-----------------|
|-----------------|
|-----------------|
|-----------------|
|-----------------|

3
|----------------------------------------|
|----------------------------------------|
|----------------------------------------|
|----------------------------------------|
|----------------------------------------|
|----------------------------------------|
|--0--------------0--0---------------0---|

4
|--------------------------|
|--11-11-11-11-11-11-10\---|
|--------------------------|
|--------------------------|
|--------------------------|
|--------------------------|
|--------------------------|

Chorus
Both guitars clean w/envelope filter or wah
|---------------------------------|------------------------------------|
|---------------------------------|------------------------------------|
|---------------------------------|------------------------------------|
|---------------------------------|------------------------------------|
|---------------------------------|------------------------------------|
|---------------------------------|------------------------------------|
|--0----------------0-------------|--0------------------------3--------|
|
|---------------------------------|------------------------------------|
|---------------------------------|------------------------------------|
|---------------------------------|------------------------------------|
|---------------------------------|------------------------------------|
|---------------------------------|------------------------------------|
|-------------------5b5b5b5b5b5b5-|--5---------------------------------|
|---------------------------------|------------------------------------|

|-----------------|-----------------------------|----------------------------------------|
|-----------------|-----------------------------|----------------------------------------|
|-----------------|-----------------------------|----------------------------------------|
|-----------------|-----------------------------|----------------------------------------|
|-----------------|-----------------------------|----------------------------------------|
|-----------------|-----------------------------|----------------------------------------|
|--5--------------|---8-------------------10----|---5----5-5-5-5-----5-5-5-5----5-5-5\---|

There are plenty of guitar noises involving bending the string with wah in
this section. I can't be bothered to tab them all out, but they're pretty much based 
the 7th fret on the 4th string, and occasionally following
the chord progression of the chorus. The part is occasionally played with
power chords as well, rather than just single notes.

2nd verse fills
1
|------------------|
|--x//////X\\\\\\--|
|--x//////X\\\\\\--|
|------------------|
|------------------|
|------------------|
|------------------|
(w/slide) Just slide from one random point to another, somewhere near the pickups.

2
w/wah
|--------------------------|
|--11-11-11-11-11-11-10\---|
|--------------------------|
|--------------------------|
|--------------------------|
|--------------------------|
|--------------------------|

3
|---------------------------------|
|---------------------------------|
|---------------------------------|
|---------------------------------|
|---------------------------------|
|--5-5-5-4-5-5-5-5-3-3-3-3-3-3-3--|
|---------------------------------|

Heavy Chorus
|----------------------|----------------------|
|----------------------|----------------------|
|----------------------|----------------------|
|----------------------|----------------------|
|--0---------0---------|--0h3-------5---------|
|--0---------0---------|--0h3-------5---------|
|--0---------0---------|--0h3-------5---------|

|----------------------|----------------------|
|----------------------|----------------------|
|----------------------|----------------------|
|----------------------|----------------------|
|--0---------0---3-----|--5-------------------|
|--0---------0---3-----|--5-------------------|
|--0---------0---3-----|--5-------------------|

|----------------------|----------------------|----------------------|----------------------|
|----------------------|----------------------|----------------------|----------------------|
|----------------------|----------------------|----------------------|----------------------|
|----------------------|----------------------|----------------------|----------------------|
|--8-------------------|--10--------5---------|---5------------------|---0------------------|
|--8-------------------|--10--------5---------|---5------------------|---0------------------|
|--8-------------------|--10--------5---------|---5------------------|---0------------------|

The rest of the song is repeats of the same riffs.
            
Submit corrections

comments powered by Disqus
↑ Back to top | Pain Of Salvation Tabs for Scarsick. Lyrics for acoustic guitar and electric guitar. Tablatures and chords are parodies/interpretations of the original songs. You may use it for private study, scholarship, research or language learning purposes only