» » »

Pain Of Salvation, Linoleum Tabs (ver.1)

Artists:  A B C D E F G H I J K L M N O P Q R S T U V W X Y Z # 

Linoleum Tabs (ver.1)

Pain Of Salvation Tabs
Rating:
4/5 (1 vote)
Linoleum lessons Tabs too difficult? Try these video lessons and learn fast
                Pain Of Salvation - Linoleum

Words and music by Daniel Gildenlöw

Guitars are seven-strings tuned to A E A D G B E (low to high)

This song is really more about groove than precision. Keep your playing loose.

Intro:

EIN! ZWEI! DREI!

Daniel (right)
|------------------------------|
|------------------------------|
|------------------------------|
|-x-x-5h7-7--7--5h7-7--7--5----|
|-x-x-0---0--0--0---0--0--0----|
|------------------------------|
|------------------------------|

Repeat this twice, then Johan joins in on the left with the same figure played an octave lower:
|------------------------------|
|------------------------------|
|------------------------------|
|------------------------------|
|------------------------------|
|-x-x-3h5-5--5--3h5-5--5--3----|
|-x-x-0---0--0--0---0--0--0----|

Verse 1:
  (Though it's hard to represent in ASCII tab, this figure is played in a manner where
starts on an eighth note rest)
  Daniel
     P.M.------------------------------------------------|
|---------------------------|----------------------------|
|---------------------------|----------------------------|
|---------------------------|----------------------------|
|---------------------------|----------------------------|
|----0--0--0--0--0--0--0--0-|---7--7--7--7--7--7--7--7---|
|---------------------------|----------------------------|
|---------------------------|----------------------------|
|
| Johan
|---------------------------|--------------------------|
|---------------------------|--------------------------|
|----14-14-14-14-14-14-14-14|---14-14-14-14-14-14-14-14|
|----x--x--x--x--x--x--x--x-|---x--x--x--x--x--x--x--x-|
|----12-12-12-12-12-12-12-12|---12-12-12-12-12-12-12-12|
|---------------------------|--------------------------|
|---------------------------|--------------------------|

  Daniel
     P.M.------------------------------------------------|
|---------------------------|----------------------------|
|---------------------------|----------------------------|
|---------------------------|----------------------------|
|---------------------------|----------------------------|
|----6--6--6--6--6--6--6--6-|---8--8--8--8--9--9--9--9---|
|---------------------------|----------------------------|
|---------------------------|----------------------------|
|
| Johan
|---------------------------|--------------------------|
|---------------------------|--------------------------|
|----14-14-14-14-14-14-14-14|---14-14-14-14-14-14-14-14|
|----x--x--x--x--x--x--x--x-|---x--x--x--x--x--x--x--x-|
|----12-12-12-12-12-12-12-12|---12-12-12-12-12-12-12-12|
|---------------------------|--------------------------|
|---------------------------|--------------------------|

  Daniel
     P.M.------------------------------------------------|
|---------------------------|----------------------------|
|---------------------------|----------------------------|
|---------------------------|----------------------------|
|----2--2--2--2--2--2--2--2-|---2--2--2--2--2--2--2--2---|
|----0--0--0--0--0--0--0--0-|---2--2--2--2--2--2--2--2---|
|---------------------------|----------------------------|
|---------------------------|----------------------------|
|
| Johan
|---------------------------|--------------------------|
|---------------------------|--------------------------|
|----14-14-14-14-14-14-14-14|---14-14-14-14-14-14-14-14|
|----x--x--x--x--x--x--x--x-|---x--x--x--x--x--x--x--x-|
|----12-12-12-12-12-12-12-12|---12-12-12-12-12-12-12-12|
|---------------------------|--------------------------|
|---------------------------|--------------------------|

  Daniel
     P.M.------------------------------------------------|
|---------------------------|----------------------------|
|---------------------------|----------------------------|
|---------------------------|----------------------------|
|----1--1--1--1--1--1--1--1-|---3--3--3--3--4--4--4--4---|
|----1--1--1--1--1--1--1--1-|---3--3--3--3--4--4--4--4---|
|---------------------------|----------------------------|
|---------------------------|----------------------------|
|
| Johan
|---------------------------|--------------------------|
|---------------------------|--------------------------|
|----14-14-14-14-14-14-14-14|---14-14-14-14-14-14-14-14|
|----x--x--x--x--x--x--x--x-|---x--x--x--x--x--x--x--x-|
|----12-12-12-12-12-12-12-12|---12-12-12-12-12-12-12-12|
|---------------------------|--------------------------|
|---------------------------|--------------------------|

Pre-Chorus:
  Daniel
|------------------------------|
|------------------------------|
|------------------------------|
|-x-x-5h7-7--7--5h7-7--7--5----|
|-x-x-0---0--0--0---0--0--0----|
|------------------------------|
|------------------------------|
|
| Johan
|------------------------------|
|------------------------------|
|------------------------------|
|------------------------------|
|------------------------------|
|-x-x-3h5-5--5--3h5-5--5--3----|
|-x-x-0---0--0--0---0--0--0----|

Repeat four times

Chorus:

Alright, this is a troublesome part for me because of the layering. Obviously, the main
riff of the song IS played. But there's also that ascending

progression that I can't really pick out. I'm arranging it here as if Daniel is playing
along with the main riff, but it could be that there are power chords in the

background, or that the progression is only outlined on bass while guitars keep playing
main riff unaltered, or it could even be Johan doing the outlining. I'm

basing finger positions on a live video.

  Daniel
|------------------------------|------------------------------|
|------------------------------|------------------------------|
|------------------------------|------------------------------|
|-----5h7-7--7--5h7-7--7--5----|-----5h7-7--7--5h7-7--7--5----|
|-0---0---0--0--0---0--0--0----|-3---0---0--0--0---0--0--0----|
|-0----------------------------|-3----------------------------|
|-0----------------------------|-3----------------------------|
|
| Johan
|------------------------------|------------------------------|
|------------------------------|------------------------------|
|------------------------------|------------------------------|
|------------------------------|------------------------------|
|------------------------------|------------------------------|
|-x-x-3h5-5--5--3h5-5--5--3----|-x-x-3h5-5--5--3h5-5--5--3----|
|-x-x-0---0--0--0---0--0--0----|-x-x-0---0--0--0---0--0--0----|

  Daniel
|------------------------------|------------------------------|
|------------------------------|------------------------------|
|------------------------------|------------------------------|
|-----5h7-7--7--5h7-7--7--5----|-----5h7-7--7--5h7-7--7--5----|
|-5---0---0--0--0---0--0--0----|-6---0---0--0--0---0--0--0----|
|-5----------------------------|-6----------------------------|
|-5----------------------------|-6----------------------------|
|
| Johan
|------------------------------|------------------------------|
|------------------------------|------------------------------|
|------------------------------|------------------------------|
|------------------------------|------------------------------|
|------------------------------|------------------------------|
|-x-x-3h5-5--5--3h5-5--5--3----|-x-x-3h5-5--5--3h5-5--5--3----|
|-x-x-0---0--0--0---0--0--0----|-x-x-0---0--0--0---0--0--0----|

Verse 2:
  Daniel
|---------------------------|--------------------------|
|---------------------------|--------------------------|
|---------------------------|--------------------------|
|---------------------------|--------------------------|
|---------------------------|--------------------------|
|---------------------------|--------------------------|
|----0--0--0--0--0--0--0--0-|--/7--7--7--7--7--7--7--7-|

  Daniel
|---------------------------|--------------------------|
|---------------------------|--------------------------|
|---------------------------|--------------------------|
|---------------------------|--------------------------|
|---------------------------|--------------------------|
|---------------------------|--------------------------|
|----6--6--6--6--6--6--6--6-|---8--8--8--8--9--9--9--9-|

  Daniel
|---------------------------|--------------------------|
|---------------------------|--------------------------|
|---------------------------|--------------------------|
|---------------------------|--------------------------|
|---------------------------|--------------------------|
|---------------------------|--------------------------|
|----0--0--0--0--0--0--0--0-|--/7--7--7--7--7--7--7--7-|
|
| Johan
|---------------------------|--------------------------|
|---------------------------|--------------------------|
|----14-14-14-14-14-14-14-14|---14-14-14-14-14-14-14-14|
|----x--x--x--x--x--x--x--x-|---x--x--x--x--x--x--x--x-|
|----12-12-12-12-12-12-12-12|---12-12-12-12-12-12-12-12|
|---------------------------|--------------------------|
|---------------------------|--------------------------|

  Daniel
|---------------------------|--------------------------|
|---------------------------|--------------------------|
|---------------------------|--------------------------|
|---------------------------|--------------------------|
|---------------------------|--------------------------|
|---------------------------|--------------------------|
|----6--6--6--6--6--6--6--6-|---8--8--8--8--9--9--9--9-|
|
| Johan
|---------------------------|--------------------------|
|---------------------------|--------------------------|
|----14-14-14-14-14-14-14-14|---14-14-14-14-14-14-14-14|
|----x--x--x--x--x--x--x--x-|---x--x--x--x--x--x--x--x-|
|----12-12-12-12-12-12-12-12|---12-12-12-12-12-12-12-12|
|---------------------------|--------------------------|
|---------------------------|--------------------------|

Pre-Chorus:
  Daniel
|------------------------------|
|------------------------------|
|------------------------------|
|-x-x-5h7-7--7--5h7-7--7--5----|
|-x-x-0---0--0--0---0--0--0----|
|------------------------------|
|------------------------------|
|
| Johan
|------------------------------|
|------------------------------|
|------------------------------|
|------------------------------|
|------------------------------|
|-x-x-3h5-5--5--3h5-5--5--3----|
|-x-x-0---0--0--0---0--0--0----|

Repeat four times

Chorus:
  Daniel
|------------------------------|------------------------------|
|------------------------------|------------------------------|
|------------------------------|------------------------------|
|-----5h7-7--7--5h7-7--7--5----|-----5h7-7--7--5h7-7--7--5----|
|-0---0---0--0--0---0--0--0----|-3---0---0--0--0---0--0--0----|
|-0----------------------------|-3----------------------------|
|-0----------------------------|-3----------------------------|
|
| Johan
|------------------------------|------------------------------|
|------------------------------|------------------------------|
|------------------------------|------------------------------|
|------------------------------|------------------------------|
|------------------------------|------------------------------|
|-x-x-3h5-5--5--3h5-5--5--3----|-x-x-3h5-5--5--3h5-5--5--3----|
|-x-x-0---0--0--0---0--0--0----|-x-x-0---0--0--0---0--0--0----|

  Daniel
|------------------------------|------------------------------|
|------------------------------|------------------------------|
|------------------------------|------------------------------|
|-----5h7-7--7--5h7-7--7--5----|-----5h7-7--7--5h7-7--7--5----|
|-5---0---0--0--0---0--0--0----|-6---0---0--0--0---0--0--0----|
|-5----------------------------|-6----------------------------|
|-5----------------------------|-6----------------------------|
|
| Johan
|------------------------------|------------------------------|
|------------------------------|------------------------------|
|------------------------------|------------------------------|
|------------------------------|------------------------------|
|------------------------------|------------------------------|
|-x-x-3h5-5--5--3h5-5--5--3----|-x-x-3h5-5--5--3h5-5--5--3----|
|-x-x-0---0--0--0---0--0--0----|-x-x-0---0--0--0---0--0--0----|

Middle section:

Rest for a few bars for piano, then:
  Daniel (w/slightly cleaner tone)
|-----------------------|------------------------------|
|-----------------------|------------------------------|
|-----------------------|--------------------12/14\12--|
|-----------------------|------------------------------|
|-----------------------|------------------------------|
|-----------------------|------------------------------|
|--0--------------------|--(0)-------------------------|
                            ^ flutter wah pedal. In music video, Daniel is touching the string
                             at various places without producing any harmonics which is something
                              I have seen him do in live videos during songs like
                              so he really
                              could be doing that too, but I'm sticking with wah since 
                              sounds more
                              like what he's doing, and it's easier to perform that way

  Daniel
|----------------------------------------|
|----------------------------------------|
|----------14h15p14------------12h14p12--|
|----------------------------------------|
|--12---12--------------12--12-----------|
|----------------------------------------|
|----------------------------------------|
|
| Johan
|----------------------------------------|
|----------------------------------------|
|----------------------------------------|
|----------14h15p14------------12h14p12--|
|--12---12--------------12--12-----------|
|----------------------------------------|
|----------------------------------------|

Bridge:

Johan plays a pretty consistent rhythm figure part while Daniel does a sort of 
over it.

  Johan's rhythm figure: (let ring throughout)
|------------------------|---------------------------|
|------------------------|-------0-------------------|
|------------------------|---------------------------|
|--9h10------------------|--9h10---------------------|
|------------------------|---------------------------|
|------------------------|---------------------------|
|------------------------|---------------------------|

  Daniel's "pseudo-solo"
|------------------------|---------------------------|
|------------------------|-----------------13----13--|
|------------------------|-----------12----12h14-12--|
|------------------------|--------12-----------------|
|------------------------|---------------------------|
|------------------------|---------------------------|
|------------------------|---------------------------|
  Sometimes...                         Ohhhhhhh...

|-----------------------------|-------------------------------|
|----------------12-----------|-------------------------------|
|-----------14-x----14--------|--------12-------12------------|
|----------------------14-----|-----12-------12----12---------|
|--12---------------------12--|--14-------------------12---12-|
|-----------------------------|-------------------------------|
|-----------------------------|-------------------------------|
   Just sometimes                          That's really all it takes...

|---------------------|---------------------------------------|
|---------------------|-12------------------------------------|
|-------14------------|-----12--14----------------------------|
|---------------------|------------14--12------------------12-|
|--12--------12----12-|-------------------12--10--10-12h14----|
|---------------------|---------------------------------------|
|---------------------|---------------------------------------|
                                          A hand on her shoulder...

|--------------------------|----------------------------------|
|------------------12------|----------------------------------|
|------------14--------14--|----------12----------12----(12)\-|
|--------14----------------|----------------------x-----------|
|--12----------------------|--12/14--------14-----14----(14)\-|
|--------------------------|----------------------------------|
|--------------------------|----------------------------------|
                                                  She breaks...

|--------------------------------|----------------------------------|
|--------------------------------|----------------------------------|
|------------14------14----------|----------14------------------14--|
|--------14------14------14------|------12------12------12----------|
|----12----------------------12--|--14--------------14------14------|
|--------------------------------|----------------------------------|
|--------------------------------|----------------------------------|

|----------------------------------|----------------------------------|
|----------------------------------|----------------------------------|
|----------14------------------14--|--------------14--------------14--|
|--12----------14------14----------|------------------12------12------|
|------12----------12------12------|--12--14--14----------14----------|
|----------------------------------|----------------------------------|
|----------------------------------|----------------------------------|

During this section, Johan's part changes:
|---------------------------|--------------------------|
|---------------------------|--------------------------|
|----14-14-14-14-14-14-14-14|---14-14-14-14-14-14-14-14|
|----x--x--x--x--x--x--x--x-|---x--x--x--x--x--x--x--x-|
|----12-12-12-12-12-12-12-12|---12-12-12-12-12-12-12-12|
|---------------------------|--------------------------|
|---------------------------|--------------------------|

|---------------------------|--------------------------|
|---------------------------|--------------------------|
|----14-14-14-14-14-14-14-14|---12-12-12-12-11-11-11-11|
|----x--x--x--x--x--x--x--x-|---x--x--x--x--x--x--x--x-|
|----12-12-12-12-12-12-12-12|---10-10-10-10-9--9--9--9-|
|---------------------------|--------------------------|
|---------------------------|--------------------------|

  Daniel:
|--------------------------------|----------------------------------|
|--------------------------------|----------------------------------|
|------------14--------------14--|----------12--------------12------|
|--------14------14------14------|------12------14------12------14--|
|----12--------------12----------|--14--------------14--------------|
|--------------------------------|----------------------------------|
|--------------------------------|----------------------------------|

|----------------------------------|----------------------------------|
|----------------------------------|----------------------------------|
|----------14--------------14------|----------12--------------12------|
|------13------13------13------13--|------15------15------15------15--|
|--12--------------12--------------|--14--------------15--------------|
|----------------------------------|----------------------------------|
|----------------------------------|----------------------------------|

|--------------------------------|----------------------------------|
|--------------------------------|----------------------------------|
|------------14--------------14--|----------12--------------12------|
|--------14------14------14------|------12------14------12------14--|
|----12--------------12----------|--14--------------14--------------|
|--------------------------------|----------------------------------|
|--------------------------------|----------------------------------|

|----------------------------------|----------------------------------|
|----------------------------------|----------------------------------|
|----------14--------------14------|----------12--------------12------|
|------13------13------13------13--|------15------15------15------15--|
|--12--------------12--------------|--14--------------15--------------|
|----------------------------------|----------------------------------|
|----------------------------------|----------------------------------|


  "Done!"
  Daniel
|------------------------------|
|------------------------------|
|------------------------------|
|-x-x-5h7-7--7--5h7-7--7--5----|
|-x-x-0---0--0--0---0--0--0----|
|------------------------------|
|------------------------------|
|
| Johan
|------------------------------|
|------------------------------|
|------------------------------|
|------------------------------|
|------------------------------|
|-x-x-3h5-5--5--3h5-5--5--3----|
|-x-x-0---0--0--0---0--0--0----|

Repeat four times

Chorus:
  Daniel
|------------------------------|------------------------------|
|------------------------------|------------------------------|
|------------------------------|------------------------------|
|-----5h7-7--7--5h7-7--7--5----|-----5h7-7--7--5h7-7--7--5----|
|-0---0---0--0--0---0--0--0----|-3---0---0--0--0---0--0--0----|
|-0----------------------------|-3----------------------------|
|-0----------------------------|-3----------------------------|
|
| Johan
|------------------------------|------------------------------|
|------------------------------|------------------------------|
|------------------------------|------------------------------|
|------------------------------|------------------------------|
|------------------------------|------------------------------|
|-x-x-3h5-5--5--3h5-5--5--3----|-x-x-3h5-5--5--3h5-5--5--3----|
|-x-x-0---0--0--0---0--0--0----|-x-x-0---0--0--0---0--0--0----|

  Daniel
|------------------------------|------------------------------|
|------------------------------|------------------------------|
|------------------------------|------------------------------|
|-----5h7-7--7--5h7-7--7--5----|-----5h7-7--7--5h7-7--7--5----|
|-5---0---0--0--0---0--0--0----|-6---0---0--0--0---0--0--0----|
|-5----------------------------|-6----------------------------|
|-5----------------------------|-6----------------------------|
|
| Johan
|------------------------------|------------------------------|
|------------------------------|------------------------------|
|------------------------------|------------------------------|
|------------------------------|------------------------------|
|------------------------------|------------------------------|
|-x-x-3h5-5--5--3h5-5--5--3----|-x-x-3h5-5--5--3h5-5--5--3----|
|-x-x-0---0--0--0---0--0--0----|-x-x-0---0--0--0---0--0--0----|
            
Submit corrections

comments powered by Disqus
↑ Back to top | Pain Of Salvation Tabs for Linoleum. Lyrics for acoustic guitar and electric guitar. Tablatures and chords are parodies/interpretations of the original songs. You may use it for private study, scholarship, research or language learning purposes only