» » »

Pain Of Salvation, Latericius Valete Tabs (ver.1)

Artists:  A B C D E F G H I J K L M N O P Q R S T U V W X Y Z # 

Latericius Valete Tabs (ver.1)

Pain Of Salvation Tabs
Rating:
0/5 (0 votes)
Latericius Valete lessons Tabs too difficult? Try these video lessons and learn fast
                Pain of Salvation
Be (2004)


Tuning E A D G B E
Part 1
E-----1-0-----1-0-----1-0-----1-0-----2-0-----2-0-----2-0-----2-0-----|
B---1-------1-------1-------1-------0-------0-------0-------0---------|
G---------------------------------------------------------------------|
D-0-----------------------------------------------0-------------------|
A---------0-------3---------------------------------------2-----------|
E-------------------------1-------0-------3---------------------------|

E-----1-0-----1-0-----1-0-----1-0-----2-0-----2-0-----2-0-----2-0-----|
B---1-------1-------1-------1-------0-------0-------0-------0---------|
G-------------------------------------------------0-------------------|
D---------2-----------------------0-----------------------2-----------|
A-0---------------2-------3---------------2---------------------------|
E---------------------------------------------------------------------|

Part 2
E---------------------10------------------------------10------------|
B-----13-------12--------------10-----10-----------------------12---|
G----------------------------------------------11-------------------|
D-0-0----0-0-0----0-0----0-0-0----0-0----0-0-0----0-0----0-0-0------|
A-------------------------------------------------------------------|
E-------------------------------------------------------------------|

E--------------12-----10-----------------------10-------------------|
B-----13-----------------------10-----10-------------10-------------|
G-------------------------------------------------------------11----|
D-0-0----0-0-0----0-0----0-0-0----0-0----0-0-0----0-0---0-0-0-------|
A-------------------------------------------------------------------|
E-------------------------------------------------------------------|

(small interlude)
E------------12-14-12---|------------|
B-12-10-8---------------|-4slide10---|
G---------11------------|------------|
D-----------------------|------------|
A-----------------------|------------|
E-----------------------|------------|

Part 3:
E--------------------------------------------|
B--------------------------------------------|
G--------------------------------------------|
D-7-------2----------7---------9-------------|
A-7-------2----------7---------9-------------|
E-5-5-5-5-0-0-0--0-0-5-5-5-5-5-7-7-7-7-------|

Lead:
E-b12----15p14p12-------------------------------|
B-----12---------h15p14p12----------------------|
G--------------------------12----v[11]----------|
D-----------------------------------------------|
A-----------------------------------------------|
E-----------------------------------------------|
            

comments powered by Disqus
↑ Back to top | Pain Of Salvation Tabs for Latericius Valete. Lyrics for acoustic guitar and electric guitar. Tablatures and chords are parodies/interpretations of the original songs. You may use it for private study, scholarship, research or language learning purposes only