>
 >
Foreword

Foreword Bass Tabs

Pain Of Salvation - Foreword chords, tabs, tablatures, lyrics

Guitar lessons | Add/correct | Request | Top 50 tabs Artists:  A B C D E F G H I J K L M N O P Q R S T U V W X Y Z 0-9

Foreword Bass Tabs – Pain Of Salvation

CD, Sheet music, Poster

Do you like Foreword? Share with your friends now
Bass Tabs
#------------------------------------------------------------------------------##

                             ! (FOREWORD) (Bassline)
                        As recorded by Pain Of Salvation
                         (From the 1997 Album ENTROPIA)

Words and Music by D.Gildenlow

Gtr I (B E A D G) - 'Untitled'

  Q=76
 4/4
  Gtr I
  H.      S S S S     S S S S S S S S S S S S S S S S  3x
|-----------------||-----------------------------------||
|-----------------||o---------------------------------o||
|-2-------3-2-0-2-||----2-2-2---2-2-2---2-2-2-3-2-0-2--||
|-----------------||o---------------------------------o||
|-----------------||-----------------------------------||


  S S S S S S S S Q  S S S S     S S S S S S S S S S S S S S S S   4x
|----------------------------||------------------------------------||
|----------------------------||o----------------------------------o||
|---2-2-2---2-2-2----3-2-0-2-||----2-2-2---2-2-2---2-2-2-3-2-0-2---||
|----------------------------||o----------------------------------o||
|----------------------------||------------------------------------||


  Q  E s s Q  E. s   Q  Q  Q..   S
|------------------|---------------|
|------------------|---------------|
|------------------|---------------|
|-0--0-----1--1--0-|-0--2--------2-|
|------3-5---------|-------4-------|


    S S S S S S S S S S S S S S S S  4x
||-----------------------------------||
||o---------------------------------o||
||----2-2-2---2-2-2---2-2-2-3-2-0-2--||
||o---------------------------------o||
||-----------------------------------||


 2/4       4/4
  Q..   S   +W             s s s s s s s s s s s s s s s s  4x
|---------|------------||-----------------------------------||
|---------|------------||o---------------------------------o||
|-3-----2-|-(2)--------||--2-2-2-2-2-2-2-2-2-2-2-2-2-2-2-2--||
|---------|------------||o---------------------------------o||
|---------|------------||-----------------------------------||


  s s s s s s s s s s s s s s s s   s s s s s s s s s s s s s s s s
|---------------------------------|---------------------------------|
|-2-2-2-2-2-2-2-2-2-2-2-2-2-2-2-2-|---------------------------------|
|---------------------------------|-3-3-3-3-3-3-3-3-2-2-2-2-2-2-2-2-|
|---------------------------------|---------------------------------|
|---------------------------------|---------------------------------|


                                   7/4
  s s s s s s s s s s s s s s s s   H    H    H.
|---------------------------------|-----------------|
|---------------------------------|-----------------|
|-3---3---3---3---2---2---2---2---|-3----2----------|
|---------------------------------|-----------0-----|
|---------------------------------|-----------------|


   4/4
    s S Q  s s Q  Q    3x W          Q..   S +H       Q..   S +H
||---------------------||----------|----------------|----------------|
||o-------------------o||----------|-3-----2-(2)----|-3--------------|
||---------------------||-0--------|----------------|-------0-(0)----|
||o-0-0----0-0----7\--o||----------|----------------|----------------|
||---------------------||----------|----------------|----------------|


 7/4                 4/4
  H    H    H.        S S E S S E S S E S S E   S S E S S E Q  Q
|-------------------|-------------------------|--------------------|
|-3----2------------|-------------------------|--------------------|
|-----------0-------|-------------------------|--------------------|
|-------------------|-0-0---0-0---0-0---0-0---|-0-0---0-0---3--1---|
|-------------------|-------------------------|--------------------|


  S S S E S E. S S S S S E   E S S S S S S Q  Q
|--------------------------|---------------------|
|--------------------------|---------------------|
|--------------------------|------------------2--|
|-0-0-0---0----0-0---0-0---|---0-0---0---0-3-----|
|--------------------------|---------------------|


  Q  E s s Q  E. S   Q  Q  H      Q  E s s Q  E. S   Q  Q  H
|------------------|------------|------------------|------------|
|------------------|------------|------------------|------------|
|------------------|------------|------------------|-------2----|
|-0--0-0-0-1--1--1-|-0--0-------|-0--0-0-0-1--1--1-|-0--0-------|
|------------------|-------4----|------------------|------------|


  s s s s s s s s s s s s S S E
|-------------------------------|
|-------------------------------|
|-------------------------1h2-2-|
|-0-0-0-0-0-0-0-0-0-0-0-0-------|
|-------------------------------|


  s s s s s s s s s s s s Q    s s s s s s s s s s s s S S E
|----------------------------|--------------------------------|
|----------------------------|--------------------------------|
|-------------------------1--|-------------------------1h2-2--|
|-0-0-0-0-0-0-0-0-0-0-0-0----|-0-0-0-0-0-0-0-0-0-0-0-0--------|
|----------------------------|--------------------------------|


  E. T T S S S S +H       s s q  s s h      s s q  s s Q.   e
|-----------------------|-----------------|-------------------|
|-----------------------|-----------------|-------------------|
|-0--0-0-0-0-0-0-(0)----|-----------------|-------------------|
|-----------------------|-1-1----0-0------|-1-1----0-0------0-|
|-----------------------|-----------------|-------------------|


  t t t t t t t t t t t t t t t t t t t t t t t t t t t t t t t t
|-----------------------------------------------------------------|
|-----------------------------------------------------------------|
|-----------------------------------------------------------------|
|-1-1-1-1-1-1-1-1-1-1-1-1-1-1-1-1-0-0-0-0-0-0-0-0-0-0-0-0-0-0-0-0-|
|-----------------------------------------------------------------|


  t t t t t t t t t t t t t t t t t t t t t t t t t t t t t t t t
|-----------------------------------------------------------------|
|-----------------------------------------------------------------|
|-----------------------------------------------------------------|
|-5-5-5-5-5-5-5-5-5-5-5-5-5-5-5-5-5-5-5-5-5-5-5-5-5-5-5-5-5-5-5-5-|
|-----------------------------------------------------------------|


                                  1.
 3/4            4/4
                           |-3-|
  T E.. H        Q  E E Q  E E E   Q  E E E. E. E
|------------||------------------|-----------------||
|------------||o-----------------|----------------o||
|------------||--5--5-5----5-5-5-|-2--2-2-1--1--1--||
|-5----------||o-----------------|----------------o||
|------------||---------3--------|-----------------||


  2.
 5/4                  4/4
  Q  E E E. E. E. E.   E T T T T E T T T T S E S Q
|--------------------|------------------------------|
|--------------------|------------------------------|
|-2--2-2-1--1--1--1--|------------------------------|
|--------------------|-4-4-4-4-4-4-4-4-4-4-4-4-4-4--|
|--------------------|------------------------------|


                                13/16
  E T T T T E T T T T S E S Q    H.      +S
|------------------------------|-------------|
|------------------------------|-------------|
|------------------------------|-3-------(3)-|
|-1-1-1-1-1-1-1-1-1-1-1-1-1-1--|-------------|
|------------------------------|-------------|


 7/8             6/8
  Q  E. E. E. s   H.
|---------------|-------|
|-9--8--5--7----|-3-----|
|-------------3-|-------|
|---------------|-------|
|---------------|-------|


 4/4                                11/8                     4/4
   Q..    S  Q  Q    Q..   S Q  Q     Q.    S  Q  Q  Q.   S   E. E. S S +H
|------------------|---------------|------------------------|------------------|
|-10--------10--9--|-7-------7--9--|-10-------10--9--7------|------------------|
|--------10--------|-------7-------|-------10-------------7-|-8--8--8-8-(8)----|
|------------------|---------------|------------------------|------------------|
|------------------|---------------|------------------------|------------------|


                                        7/16     2/4
  W          E.   E  E   Q   +S   E  E    E. Q    H
|----------|--------10-/12--(12)-14-17-|-16\----|------|
|----------|----/10--------------------|--------|------|
|-7--------|-8-------------------------|--------|-2----|
|----------|---------------------------|--------|------|
|----------|---------------------------|--------|------|


 4/4
   Q..    S  Q  Q    Q..   S S S S S  S S S S
|------------------|--------------------------|
|-10--------10--9--|-7-------7---7-9-10-9-9-9-|
|--------10--------|-------7---7--------------|
|------------------|--------------------------|
|------------------|--------------------------|


                   5/4
  Q.   S S  Q  Q    Q..   S H.
|-5----5-7--9-----|---------------|
|------7-9-10--9--|-7-------------|
|-----------------|-------7-8-----|
|-----------------|---------------|
|-----------------|---------------|


 4/4
  Q  +S  t t S S Q  Q    Q  +S  t t S S Q  Q
|----------------------|----------------------|
|----------------------|----------------------|
|-3--(3)-3-3-3---3--2--|-------------------2--|
|--------------3-------|-5--(5)-5-5-5-0-5-----|
|----------------------|----------------------|


  Q.   S S  Q  Q    Q  +S  T T S S H
|------5-7--9-----|---------------------|
|------7-9-10-----|---------------------|
|-3------------2--|-1--(1)-1-1-1-1-1----|
|-----------------|---------------------|
|-----------------|---------------------|


  E. S e S +H     S   E. S e E. S e E. S   E. s s s e. s e E. S
|-------------------|--------------------|----------------------|
|-------------------|--------------------|----------------------|
|-------------------|--------------------|----------------------|
|-5--5-5-5-(5)----0-|-5--5-5-5--5-5-7\---|-3--3-3-3-3--3-3-3----|
|-------------------|------------------3-|--------------------3-|


  E. s s s e. s e E. S   E. s s s e. s e E. S   E. S e E. S e E. S
|----------------------|----------------------|--------------------|
|----------------------|----------------------|--------------------|
|----------------------|----------------------|--------------------|
|-3--3-3-3-3--3-3-3----|-5--5-5-5-5--5-5-5--0-|-5--5-5-5--5-5-7\---|
|--------------------3-|----------------------|------------------3-|


     |-3-|
  E. T T T e E. s s s s E S   E. S S S E. S S S E. S
|---------------------------|------------------------|
|---------------------------|------------------------|
|-3----3-3-3-3--3-3-3-3-3---|-3--3-3-3-3--3-3-3-3----|
|-------------------------3-|----------------------5-|
|---------------------------|------------------------|


  E. S E E. S E E. S   E. S E E. S E E. S   E. S E E. S E E. S
|--------------------|--------------------|--------------------|
|--------------------|--------------------|--------------------|
|-5--5-5-5--5-5-5--5-|-4--4-4-4--4-4-4--4-|-3--3-3-3--3-3-3--3-|
|--------------------|--------------------|--------------------|
|--------------------|--------------------|--------------------|


  E. s e s e s s s s E.   E. S E E. S E E. S   E. S E E.  S S S  S S S S
|-----------------------|--------------------|--------------6-8-/9-8-6----|
|-----------------------|--------------------|-----------/6------------6--|
|------------------2-4--|-5--5-5-5--5-5-5--5-|-4--4-4-4-------------------|
|-5--5-5-5-5-5-5-0------|--------------------|----------------------------|
|-----------------------|--------------------|----------------------------|


                                    7/16
  E. S E E. S E  E  E   Wx3          Q..
|---------------/9-12-|------------|-------|
|---------------------|------------|-------|
|-3--3-3-3--3-3-------|------------|-------|
|---------------------|------------|-------|
|---------------------|------------|-------|


 4/4
  H.      S S S S     S S S S S S S S S S S S S S S S  3x
|-----------------||-----------------------------------||
|-----------------||o---------------------------------o||
|-2-------3-2-0-2-||----2-2-2---2-2-2---2-2-2-3-2-0-2--||
|-----------------||o---------------------------------o||
|-----------------||-----------------------------------||


 6/8                     4/4
  S S S S S S S S S E S   S S S S S S S E S S S S S S S
|-----------------------|-------------------------------|
|-----------------------|-------------------------------|
|---2-2-2---2-2-2-2---4-|---4-4-4---4-4---4-4-4-5-4-2-4-|
|-----------------------|-------------------------------|
|-----------------------|-------------------------------|


  S S S S S S S S S S S S S S S S   S s s s s s s s s s s s s s s s
|---------------------------------|---------------------------------|
|---------------------------------|---------------------------------|
|---4-4---4-4---4---4-4-4-5-4-2-4-|---------------------------------|
|---------------------------------|---------------------------------|
|---------------------------------|---2-2-2-2-2-2-2-2-2-2-2-2-2-2-2-|


 9/8
  s s s s s s s s s s s s s S S S S S
|-------------------------------------|
|-------------------------------------|
|-------------------------------------|
|-------------------------------------|
|-2-2-2-2-2-2-2-2-2-2-2-2-3-2-0-2-3---|


 7/8         4/4
                                          |-3--|
  H..         H    E. E. E   S Q  +Q..   +E  E E
|-----------|--------------|---------------------|
|-----------|--------------|---------------------|
|-----------|------1--1--1-|-5-5--(5)----(5)-7-5-|
|-----------|--------------|---------------------|
|-----------|--------------|---------------------|


                                                       |-3-|
  s s Q.   t t t t t t t t t t t t t t t t   Q  E E Q  E E E   Q  E E E. E. E
|------------------------------------------|-----------------|----------------|
|------------------------------------------|-----------------|----------------|
|-2-2------1-1-1-1-1-1-1-1-1-1-1-1-1-1-1-1-|-5--5-5----5-5-5-|-2--2-2-1--1--1-|
|------------------------------------------|-----------------|----------------|
|------------------------------------------|--------3--------|----------------|


  Q  E E Q  s +x  s +x  S.   Q  E E E. E. E
|--------------------------|----------------|
|--------------------------|----------------|
|-5--5-5----5-(5)-5-(5)-5--|-2--2-2-1--1--1-|
|--------------------------|----------------|
|--------3-----------------|----------------|


    E S S E S S E S S S. S +X  S +X    E S S E S S E S S E S S
||-----------------------------------|--------------------------||
||o----------------------------------|-------------------------o||
||--5-----5-----5-----5--7-(7)-5-(5)-|-2-2-2-2-2-2-1-1-1-1-1-1--||
||o----------------------------------|-------------------------o||
||----3-3---3-3---3-3----------------|--------------------------||


    S T T T T T T S S S S S T T T T T T S S S S
||----------------------------------------------|
||o---------------------------------------------|
||--5-------------5-------5-------------5-------|
||o---------------------------------------------|
||----3-3-3-3-3-3---3-3-3---3-3-3-3-3-3---3-3-3-|


 1.
  S T T T T T T S S S S S T T T T T T S S S S
|-----------------------------------------------||
|----------------------------------------------o||
|-2-2-2-2-2-2-2-2-2-2-2-1-1-1-1-1-1-1-1-1-1-1---||
|----------------------------------------------o||
|-----------------------------------------------||


  2.
  S T T T T T T S S S S E. E. E   +W
|-------------------------------|--------*|
|-------------------------------|--------*|
|-2-2-2-2-2-2-2-2-2-2-2-1-----1-|-(1)----*|
|--------------------------1----|--------*|
|-------------------------------|--------*|


Duration Legend
---------------
W - whole; H - half; Q - quarter; E - 8th; S - 16th; T - 32nd; X - 64th; a - acciaccatura
+ - note tied to previous; . - note dotted; .. - note double dotted
Uncapitalized letters represent notes that are staccato (1/2 duration)
Irregular groupings are notated above the duration line
Duration letters will always appear directly above the note/fret number it represents the
duration for.  Duration letters with no fret number below them represent rests.  Multi-
bar rests are notated in the form Wxn, where n is the number of bars to rest for.  Low
melody durations appear below the staff

Tablature Legend
----------------
 h   - hammer-on
 p   - pull-off
 b   - bend
 pb  - pre-bend
 r   - bend release (if no number after the r, then release immediately)
 /\  - slide into or out of (from/to "nowhere")
 s   - legato slide
 S   - shift slide
  - natural harmonic
[n]  - artificial harmonic
n(n) - tapped harmonic
 ~   - vibrato
 tr  - trill
 T   - tap
 TP  - trem. picking
 PM  - palm muting
\n/  - tremolo bar dip; n = amount to dip
 \n  - tremolo bar down
 n/  - tremolo bar up
/n\  - tremolo bar inverted dip
 =   - hold bend; also acts as connecting device for hammers/pulls
 <>  - volume swell (louder/softer)
 x   - on rhythm slash represents muted slash
 o   - on rhythm slash represents single note slash

Misc Legend
-----------
 |  - bar
||  - double bar
||o - repeat start
o|| - repeat end
*|  - double bar (ending)
 :  - bar (freetime)
 $  - Segno
 &  - Coda
Tempo markers -  = BPM(8/16=s8/s16), where s8 = swing 8ths, s16 = swing 16ths


***************************************************************************************
***************************************************************************************





Comments


Popular Pain Of Salvation tabs & chords
Fandango Bass Tabs
Ashes Chords
Imago Chords
Second Love 1 Chords
Ashes Tabs
Beyond The Pale Tabs
Dryad Of The Woods Tabs
Idiocracy Tabs
Linoleum Tabs
Sisters Ukulele


Song lyrics



↑ Back to top | Tablatures and chords are parodies/interpretations of the original songs. You may use it for private study, scholarship, research or language learning purposes only
© 2014 AZChords.com Contact us | Privacy policy | DMCA | Add/correct tabs | Request tabs | Top 50 tabs