» » »

Pain Of Salvation, Fandango Bass tabs (ver.1)

Artists:  A B C D E F G H I J K L M N O P Q R S T U V W X Y Z # 

Fandango Bass tabs (ver.1)

Pain Of Salvation Tabs
 Rating:
4/5 (4 votes)
Fandango lessons Tabs too difficult? Try these video lessons and learn fast
                #------------------------------------------------------------------------------##

                               FANDANGO (Bassline)
                        As recorded by Pain Of Salvation
                        (From the 2002 Album REMEDY LANE)

Words and Music by D.Gildenlow

Gtr I (B D A D G B) - 'Untitled'

 Intro
  Q=5H=H        Q=7H=H                          Q=131
 5/4
  Gtr I
  Q  W          Q  W          H    H.        Q  W          Wx8
|-------------|-------------|--------------|-------------|--------|
|-------------|-------------|--------------|-------------|--------|
|-------------|-------------|--------------|-------------|--------|
|-------------|-------------|--------------|-------------|--------|
|-------------|-------------|--------------|-------------|--------|
|-------------|-------------|--------------|-------------|--------|


    E S S E E E E E E E E   E S S E E E E E E E E  4x
||------------------------|------------------------||
||o-----------------------|-----------------------o||
||------------------------|------------------------||
||------------------------|------------------------||
||o-0-7-7-7-0---7-0-0-0-0-|-0-7-7-7-0---7-0-0-0-0-o||
||------------------------|------------------------||


   Pre-Verse 0:51
    E S S E E E E E E E E  7x E S S E E E E E E Q
||-------------------------||----------------------|
||o-----------------------o||----------------------|
||-------------------------||----------------------|
||-------------------------||----------------------|
||o-0-7-7-7-0---7-0-0-0-0-o||-0-7-7-7-0---7-0-0----|
||-------------------------||----------------------|


   Verse 1  1:09
    E S S E E E E E E E E   E S S E E E E E E E E  4x
||------------------------|------------------------||
||o-----------------------|-----------------------o||
||------------------------|------------------------||
||------------------------|------------------------||
||o-0-7-7-7-0---7-0-0-0-0-|-0-7-7-7-0---7-0-0-0-0-o||
||------------------------|------------------------||


   Bridge 1:28
    Q=128
    E S S S S S S E E S S E E S S   E S S S S S S E E S S E E S S  4x
||--------------------------------|--------------------------------||
||o-------------------------------|-------------------------------o||
||--------------------------------|--------------------------------||
||--------------------------------|--------------------------------||
||o---3---3-3-3-3-3---3-3-3-3-3-3-|---3---3-3-3-3-3---3-3-3-3-3-3-o||
||--1---------------1-------------|-1---------------1--------------||


   Guitar Solo 1  1:47
    Q=130
    E S S E E E E E E E E   E S S E E E E E E E E
||------------------------|------------------------||
||o-----------------------|-----------------------o||
||------------------------|------------------------||
||------------------------|------------------------||
||o-0-7-7-7-0---7-0-0-0-0-|-0-7-7-7-0---7-0-0-0-0-o||
||------------------------|------------------------||


   Pre-Verse 1:56
    E S S E E E E E E E E   E S S E E E E E E E E
||------------------------|------------------------||
||o-----------------------|-----------------------o||
||------------------------|------------------------||
||------------------------|------------------------||
||o-0-7-7-7-0---7-0-0-0-0-|-0-7-7-7-0---7-0-0-0-0-o||
||------------------------|------------------------||


   Verse 2  2:05
    E S S E E E E E E E E   E S S E E E E E E E E  4x
||------------------------|------------------------||
||o-----------------------|-----------------------o||
||------------------------|------------------------||
||------------------------|------------------------||
||o-0-7-7-7-0---7-0-0-0-0-|-0-7-7-7-0---7-0-0-0-0-o||
||------------------------|------------------------||


                                           |---5---|
  W        E E   E S E S E S S S S S S S S S S S S S
|--------------|-------------------------------------|
|--------------|---------------5-----5-----5-3-------|
|--------------|-----------3-5---3-5---3-5-----5-3---|
|--------------|-3---3---3-------------------------6-|
|-0--------0-0-|-------------------------------------|
|--------------|-------------------------------------|


 Chorus 2:28
  Q  +S  E. +E  E +E. S +Q     Q  +S  E. +E  E +E. S +Q
|----------------------------|----------------------------|
|----------------------------|---------------5-(5)--------|
|---------------5-(5)--------|--------5--(5)-------5-(5)--|
|--------5--(5)-------5-(5)--|-3--(3)---------------------|
|-5--(5)---------------------|----------------------------|
|----------------------------|----------------------------|


  Q  +S  E. +E  E +E. S +Q     Q  +S  E. +E  E +E. +S  +Q
|----------------------------|------------------------------|
|---------------3-(3)--------|------------------------------|
|--------3--(3)-------3-(3)--|---------------6-(6)-(6)-(6)--|
|-1--(1)---------------------|--------6--(6)----------------|
|----------------------------|-6--(6)-----------------------|
|----------------------------|------------------------------|


  Q  +S  E. +E  E +E. S +Q     Q  +S  E. +E  E +E. S +Q
|----------------------------|----------------------------|
|----------------------------|---------------5-(5)--------|
|---------------5-(5)--------|--------5--(5)-------5-(5)--|
|--------5--(5)-------5-(5)--|-3--(3)---------------------|
|-5--(5)---------------------|----------------------------|
|----------------------------|----------------------------|


                                                |-3--|
  Q  +S  E. +E  E +E. S +Q     Q  +S  E. +E  E +Q  Q Q
|----------------------------|--------------------------|
|---------------3-(3)--------|--------------------------|
|--------3--(3)-------3-(3)--|---------------6-(6)-6-6--|
|-1--(1)---------------------|--------6--(6)------------|
|----------------------------|-6--(6)-------------------|
|----------------------------|--------------------------|


   Bridge 2:47
    Q=128
    E S S S S S S E E S S E E S S   E S S S S S S E E S S E E S S  4x
||--------------------------------|--------------------------------||
||o-------------------------------|-------------------------------o||
||--------------------------------|--------------------------------||
||--------------------------------|--------------------------------||
||o---3---3-3-3-3-3---3-3-3-3-3-3-|---3---3-3-3-3-3---3-3-3-3-3-3-o||
||--1---------------1-------------|-1---------------1--------------||


   Guitar Solo 2  3:05
    Q=130
    E S S E E E E E E E E   E S S E E E E E E E E
||------------------------|------------------------||
||o-----------------------|-----------------------o||
||------------------------|------------------------||
||------------------------|------------------------||
||o-0-7-7-7-0---7-0-0-0-0-|-0-7-7-7-0---7-0-0-0-0-o||
||------------------------|------------------------||


   Pre-Verse 3:14
    E S S E E E E E E E E   E S S E E E E E E E E
||------------------------|------------------------||
||o-----------------------|-----------------------o||
||------------------------|------------------------||
||------------------------|------------------------||
||o-0-7-7-7-0---7-0-0-0-0-|-0-7-7-7-0---7-0-0-0-0-o||
||------------------------|------------------------||


   Verse 3  3:23
                         1.,2.,3.                4.
    E E E E E E E E E E   E E E E E E E E E E  4x E E E E E E E Q.
||----------------------|----------------------||--------------------|
||o---------------------|---------------------o||--------------------|
||----------------------|----------------------||--------------------|
||----------------------|----------------------||--------------------|
||o---------------------|---------------------o||--------------------|
||--3-1-3-4-3-1-3-1-3-4-|-3-1-3-1-3-4-3-1-3-1--||-3-1-3-1-3-4-3------|


 Chorus 3:42
  Q  +S  E. +E  E +E. S +Q     Q  +S  E. +E  E +E. S +Q
|----------------------------|----------------------------|
|----------------------------|---------------5-(5)--------|
|---------------5-(5)--------|--------5--(5)-------5-(5)--|
|--------5--(5)-------5-(5)--|-3--(3)---------------------|
|-5--(5)---------------------|----------------------------|
|----------------------------|----------------------------|


  Q  +S  E. +E  E +E. S +Q     Q  +S  E. +E  E +E. +S  +Q
|----------------------------|------------------------------|
|---------------3-(3)--------|------------------------------|
|--------3--(3)-------3-(3)--|---------------6-(6)-(6)-(6)--|
|-1--(1)---------------------|--------6--(6)----------------|
|----------------------------|-6--(6)-----------------------|
|----------------------------|------------------------------|


  Q  +S  E. +E  E +E. S +Q     Q  +S  E. +E  E +E. S +Q
|----------------------------|----------------------------|
|----------------------------|---------------5-(5)--------|
|---------------5-(5)--------|--------5--(5)-------5-(5)--|
|--------5--(5)-------5-(5)--|-3--(3)---------------------|
|-5--(5)---------------------|----------------------------|
|----------------------------|----------------------------|


                                                |-3--|
  Q  +S  E. +E  E +E. S +Q     Q  +S  E. +E  E +Q  Q Q
|----------------------------|--------------------------|
|---------------3-(3)--------|--------------------------|
|--------3--(3)-------3-(3)--|---------------6-(6)-6-6--|
|-1--(1)---------------------|--------6--(6)------------|
|----------------------------|-6--(6)-------------------|
|----------------------------|--------------------------|


   Breakdown 4:00
                                                        |---5---|
    E E S E E S E E S E E S  4x e. e. e S S S S S S S S S S S S S
||---------------------------||------------------------------------|
||o-------------------------o||------------------------------------|
||---------------------------||---------3-3-5-3-3-5-3-3-5-3--------|
||---------------------------||-----------------------------5-3----|
||o-5-5---5-0---5-5---5-0---o||-5--5--5-------------------------6--|
||---------------------------||------------------------------------|


   Interlude 4:12
                         1.,2.,3.               4.
    E E E E E E E E  Q    E E E E E E E E Q   4x E E E E E E E E Q
||----------------------|---------------------||--------------------|
||o---------------------|--------------------o||--------------------|
||----------------------|---------------------||--------------------|
||----------------------|---------------------||--------------------|
||o---------------------|--------------------o||--------------------|
||--3-1---3---1-3---/4--|-3-1---3---3---4-1---||-3-1---3---3---4-3--|


    E E E E E E E E  Q    E E E E E E E E Q   4x Q  Q  Q  Q  Q
||----------------------|---------------------||----------------|
||o---------------------|--------------------o||----------------|
||----------------------|---------------------||-------8--------|
||----------------------|---------------------||----8-----8-----|
||o---------------------|--------------------o||-8-----------8--|
||--3-2---3---2-3---/4--|-3-2---3---3---4-2---||----------------|


   Bridge 4:51
                                   1.,2.,3.
    E S S S S S S E E S S E E S S   E S S S S S S E E S S E E S S  4x
||--------------------------------|--------------------------------||
||o-------------------------------|-------------------------------o||
||--------------------------------|--------------------------------||
||--------------------------------|--------------------------------||
||o---3---3-3-3-3-3---3-3-3-3-3-3-|---3---3-3-3-3-3---3-3-3-3-3-3-o||
||--1---------------1-------------|-1---------------1--------------||


 4.
                      |-3-|   |-3-|                 |---5---|
    E S S S S S S E E q q q   q q q S S S S S S S S S S S S S
|-|-------------------------|---------------------------------|
|-|-------------------------|---------------------------------|
|-|-------------------3-3-3-|-----------1-----1-----3-1-------|
|-|-------------------------|-3-3-3-1-3---1-3---1-3-----3-1---|
|-|---3---3-3-3-3-3---------|-------------------------------6-|
|-|-1---------------1-------|---------------------------------|


    E S S S S S S E E S S E E S S
||--------------------------------|
||o-------------------------------|
||--------------------------------|
||--------------------------------|
||o---3---3-3-3-3-3---3-3-3-3-3-3-|
||--1---------------1-------------|


 1.,2.,3.                          4.
                                                      |-3-|
  E S S S S S S E E S S E E S S  4x E S S S S S S E E q q q
|--------------------------------||-------------------------|
|-------------------------------o||-------------------------|
|--------------------------------||-------------------------|
|--------------------------------||-------------------------|
|---3---3-3-3-3-3---3-3-3-3-3-3-o||---3---3-3-3-3-3---3-3-3-|
|-1---------------1--------------||-1---------------1-------|


 Outro 5:30
                                                              |-3-|
  Q  Q  Q  Q  Q    Q  Q  Q  Q  Q    Q  Q  Q  Q  Q    Q  Q  Q  q q q
|----------------|----------------|----------------|-----------------|
|----------------|----------------|----------------|-----------------|
|----------------|----------------|----------------|-----------------|
|----------------|-3--3--3--3--3--|-1--1--1--1--1--|-----------------|
|-5--5--5--5--5--|----------------|----------------|-6--6--6--6-8-6--|
|----------------|----------------|----------------|-----------------|


                                                           H.=H       Q=100
                                                                     2/4
                                                              |-3-|
  Q  Q  Q  Q  Q    Q  Q  Q  Q  Q    Q  Q  Q  Q  Q    Q  Q  Q  q q Q   +H
|----------------|----------------|----------------|----------------|--------*|
|----------------|----------------|----------------|----------------|--------*|
|----------------|----------------|----------------|----------------|--------*|
|----------------|-3--3--3--3--3--|-1--1--1--1--1--|----------------|--------*|
|-5--5--5--5--5--|----------------|----------------|-6--6--6--6-8-6-|-(6)----*|
|----------------|----------------|----------------|----------------|--------*|


Duration Legend
---------------
W - whole; H - half; Q - quarter; E - 8th; S - 16th; T - 32nd; X - 64th; a - acciaccatura
+ - note tied to previous; . - note dotted; .. - note double dotted
Uncapitalized letters represent notes that are staccato (1/2 duration)
Irregular groupings are notated above the duration line
Duration letters will always appear directly above the note/fret number it represents the
duration for.  Duration letters with no fret number below them represent rests.  Multi-
bar rests are notated in the form Wxn, where n is the number of bars to rest for.  Low
melody durations appear below the staff

Tablature Legend
----------------
 h   - hammer-on
 p   - pull-off
 b   - bend
 pb  - pre-bend
 r   - bend release (if no number after the r, then release immediately)
 /\  - slide into or out of (from/to "nowhere")
 s   - legato slide
 S   - shift slide
  - natural harmonic
[n]  - artificial harmonic
n(n) - tapped harmonic
 ~   - vibrato
 tr  - trill
 T   - tap
 TP  - trem. picking
 PM  - palm muting
\n/  - tremolo bar dip; n = amount to dip
 \n  - tremolo bar down
 n/  - tremolo bar up
/n\  - tremolo bar inverted dip
 =   - hold bend; also acts as connecting device for hammers/pulls
 <>  - volume swell (louder/softer)
 x   - on rhythm slash represents muted slash
 o   - on rhythm slash represents single note slash

Misc Legend
-----------
 |  - bar
||  - double bar
||o - repeat start
o|| - repeat end
*|  - double bar (ending)
 :  - bar (freetime)
 $  - Segno
 &  - Coda
Tempo markers -  = BPM(8/16=s8/s16), where s8 = swing 8ths, s16 = swing 16ths


***************************************************************************************
***************************************************************************************
            
Submit corrections

comments powered by Disqus
↑ Back to top | Pain Of Salvation Bass for Fandango. Lyrics for acoustic guitar and electric guitar. Tablatures and chords are parodies/interpretations of the original songs. You may use it for private study, scholarship, research or language learning purposes only