>
 >
Falling

Falling Guitar Tabs

Pain Of Salvation - Falling chords, tabs, tablatures, lyrics

Guitar lessons | Add/correct | Request | Top 50 tabs Artists:  A B C D E F G H I J K L M N O P Q R S T U V W X Y Z 0-9

Falling Guitar Tabs – Pain Of Salvation

CD, Sheet music, Poster

Do you like Falling? Share with your friends now
Tabs
#------------------------------------------------------------------------------##

                                     FALLING
                        As recorded by Pain Of Salvation
                (From the 2000 Album THE PERFECT ELEMENT PART I)

Music by D.Gildenlow

Gtr I (D A D G B E) - 'Untitled'
Gtr II (D A D G B E) - 'Strings '
Gtr III (D A D G B E) - 'bass strings'

  Q=106
  Bm
 4/4
  Gtr I
   S  S  +H..             +W            +E   +Q    E H
|-12-14-(14)-----------|-(14)--------|-(14)-(14)\---------|
|----------------------|-------------|--------------------|
|----------------------|-------------|--------------------|
|----------------------|-------------|--------------------|
|----------------------|-------------|--------------------|
|----------------------|-------------|--------------------|
|
| Gtr II
|  <
|  Q          +H.         +W            +W
|--7----------(7)------|--(7)--------|--(7)---------------|
|--7----------(7)------|--(7)--------|--(7)---------------|
|--7----------(7)------|--(7)--------|--(7)---------------|
|--9----------(9)------|--(9)--------|--(9)---------------|
|----------------------|-------------|--------------------|
|----------------------|-------------|--------------------|
|
| Gtr III
|  <
|  Q          +H.         +W            +W
|----------------------|-------------|--------------------|
|----------------------|-------------|--------------------|
|----------------------|-------------|--------------------|
|----------------------|-------------|--------------------|
|--2----------(2)------|--(2)--------|--(2)---------------|
|----------------------|-------------|--------------------|


                                            A
    E   +T  T  S.  S.  S.  S.  S.  E  e..    H         +E   T.  T.  T.  T.  S.  S.
|-/14--(14)---17------14------------------|------------------------------------------|
|-----------------17------15--17-----15---|-14--------(14)-14--15--14--12------------|
|---------------------------------16------|--------------------------------14--14----|
|-----------------------------------------|------------------------------------------|
|-----------------------------------------|------------------------------------------|
|-----------------------------------------|------------------------------------------|
|
|                                            <
|  +W                                        Q   +H.
|--(7)------------------------------------|--5---(5)---------------------------------|
|--(7)------------------------------------|--5---(5)---------------------------------|
|--(7)------------------------------------|--6---(6)---------------------------------|
|--(9)------------------------------------|--7---(7)---------------------------------|
|-----------------------------------------|------------------------------------------|
|-----------------------------------------|------------------------------------------|
|
|  +W                                       +W
|-----------------------------------------|------------------------------------------|
|-----------------------------------------|------------------------------------------|
|-----------------------------------------|------------------------------------------|
|-----------------------------------------|------------------------------------------|
|--(2)------------------------------------|-(2)--------------------------------------|
|-----------------------------------------|------------------------------------------|


                    Q=92               Q=110
                                         Em
                     9/16               4/4
   +H      +Q    Q      E.  E.  E.        H        +S   S  S  S  E  E
|-------------------|----------14------|-14-------(14)-14-15-14-12-12-|
|-------------------|------15----------|------------------------------|
|-(14)----(14)\-----|-/16--------------|------------------------------|
|-------------------|------------------|------------------------------|
|-------------------|------------------|------------------------------|
|-------------------|------------------|------------------------------|
|
|                                         <
|  +W                  +H          +S     Q  +H.
|--(5)--------------|--(5)---------(5)-|--3--(3)----------------------|
|--(5)--------------|--(5)---------(5)-|--5--(5)----------------------|
|--(6)--------------|--(6)---------(6)-|--4--(4)----------------------|
|--(7)--------------|--(7)---------(7)-|--5--(5)----------------------|
|-------------------|------------------|------------------------------|
|-------------------|------------------|------------------------------|
|
|                                         <
|  +W                  +H          +S     Q  +H.
|-------------------|------------------|------------------------------|
|-------------------|------------------|------------------------------|
|-------------------|------------------|------------------------------|
|-------------------|------------------|--2--(2)----------------------|
|--(2)--------------|--(2)---------(2)-|------------------------------|
|-------------------|------------------|--2--(2)----------------------|


                      |--------4:5--------|
   +H.      Q     E   S  S  S  S  S  S  S S +T   S.  E
|-(12)---------|-10--12----10---------------------------|
|--------------|--------12----10-12----10---------------|
|--------------|--------------------12----9-(9)-12------|
|--------------|------------------------------------12--|
|--------------|----------------------------------------|
|--------------|----------------------------------------|
|
|  +W            +W
|--(3)---------|-(3)------------------------------------|
|--(5)---------|-(5)------------------------------------|
|--(4)---------|-(4)------------------------------------|
|--(5)---------|-(5)------------------------------------|
|--------------|----------------------------------------|
|--------------|----------------------------------------|
|
|  +W            +W
|--------------|----------------------------------------|
|--------------|----------------------------------------|
|--------------|----------------------------------------|
|--(2)---------|-(2)------------------------------------|
|--------------|----------------------------------------|
|--(2)---------|-(2)------------------------------------|


  Q=125                             Q=100
  C
  W             +H.      +S  S.  S.    Q       +Q.    +E    e e
|-------------|---------------------|---------------------------|
|-------------|--------------8--10--|-10b12===(10)---(10)r-10-8-|
|-9-----------|-(9)------(9)--------|---------------------------|
|-------------|---------------------|---------------------------|
|-------------|---------------------|---------------------------|
|-------------|---------------------|---------------------------|
|
| <
| H    +H       +W                    +W
|-3----(3)----|-(3)-----------------|-(3)-----------------------|
|-5----(5)----|-(5)-----------------|-(5)-----------------------|
|-5----(5)----|-(5)-----------------|-(5)-----------------------|
|-5----(5)----|-(5)-----------------|-(5)-----------------------|
|-------------|---------------------|---------------------------|
|-------------|---------------------|---------------------------|
|
| <
| H    +H       +W                    +W
|-------------|---------------------|---------------------------|
|-------------|---------------------|---------------------------|
|-5----(5)----|-(5)-----------------|-(5)-----------------------|
|-------------|---------------------|---------------------------|
|-3----(3)----|-(3)-----------------|-(3)-----------------------|
|-------------|---------------------|---------------------------|


                   Q=97                         Q=118
  Bm                                            C#m7
             |-3-|                  |-3-|
  H.         E E E   +H     +E  +T  E E E  S.   H.         S  S S S
|------------------|--------------------------|------------------------|
|-7----------------|--------------------7-10--|-9----------9-10-9-7----|
|------------9-7-7-|-(7)----(7)-(7)-7-9-------|------------------------|
|------------------|--------------------------|------------------------|
|------------------|--------------------------|------------------------|
|------------------|--------------------------|------------------------|
|
| <                                             <
| H     +H           +W                         H     +H
|-2-----(2)--------|-(2)----------------------|-4-----(4)--------------|
|-3-----(3)--------|-(3)----------------------|-5-----(5)--------------|
|-4-----(4)--------|-(4)----------------------|-6-----(6)--------------|
|-4-----(4)--------|-(4)----------------------|-9-----(9)--------------|
|------------------|--------------------------|------------------------|
|------------------|--------------------------|------------------------|
|
| <                                             <
| H     +H           +W                         H     +H
|------------------|--------------------------|------------------------|
|------------------|--------------------------|------------------------|
|-4-----(4)--------|-(4)----------------------|-6-----(6)--------------|
|------------------|--------------------------|------------------------|
|------------------|--------------------------|------------------------|
|------------------|--------------------------|------------------------|


        Q=100
                         F#sus4
 3/4
                                        ~~~~
                    |-3--|     |-3--|
   S  S E +H        S  S S  E  S S  S   Q.
|----------------|------------------------------|
|-----7-9-(9)----|-----7-9-10----9-10-/12-------|
|--9-------------|--9---------11----------------|
|----------------|------------------------------|
|----------------|------------------------------|
|----------------|------------------------------|
|
|                              <
| +H.              +Q          Q           +Q
|-(4)------------|-(4)--------------------------|
|-(5)------------|-(5)---------7-----------(7)--|
|-(6)------------|-(6)---------6-----------(6)--|
|-(9)------------|-(9)---------9-----------(9)--|
|----------------|-------------9-----------(9)--|
|----------------|------------------------------|
|
|                              <
| +H.              +Q          Q           +Q
|----------------|------------------------------|
|----------------|------------------------------|
|-(6)------------|-(6)--------------------------|
|----------------|-------------4-----------(4)--|
|----------------|------------------------------|
|----------------|-------------4-----------(4)--|


                                 Q=110
                                  4/4
                                         ~~~~~~
         |--3--|     |--3--|
   +E    S  S  S  E  S  S  S  Q     +E   Q           +Q    +Q.
|--------------------------------|---------------------------------|
|-(12)\----10-12-14----12-14-15--|-(15)-15b17=======(15)--(15)r\---|
|-------13----------14-----------|---------------------------------|
|--------------------------------|---------------------------------|
|--------------------------------|---------------------------------|
|--------------------------------|---------------------------------|
|
|                                    <
|   H.                               Q          +H.
|---7----------------------------|--12---------(12)----------------|
|--(7)---------------------------|--14---------(14)----------------|
|--(6)---------------------------|--11---------(11)----------------|
|--(9)---------------------------|---------------------------------|
|--(9)---------------------------|---------------------------------|
|--------------------------------|---------------------------------|
|
|  +H.                              +W
|--------------------------------|---------------------------------|
|--------------------------------|---------------------------------|
|--------------------------------|---------------------------------|
|--(4)---------------------------|--(4)----------------------------|
|--------------------------------|---------------------------------|
|--(4)---------------------------|--(4)----------------------------|


  Q=120
  Bm
                                    ~~~~
                                                   2:5|
   S  S  +H          +E   E   E     H      +E   S  S  S
|-12h14-(14)--------(14)-14-/19-|--19-----(19)\---21-22-|
|-------------------------------|-----------------------|
|-------------------------------|-----------------------|
|-------------------------------|-----------------------|
|-------------------------------|-----------------------|
|-------------------------------|-----------------------|
|
|  <
|  Q          +H.                  +W
|-10---------(10)---------------|-(10)------------------|
|-12---------(12)---------------|-(12)------------------|
|-11---------(11)---------------|-(11)------------------|
|--9----------(9)---------------|--(9)------------------|
|-------------------------------|-----------------------|
|-------------------------------|-----------------------|
|
|  <
|  Q          +H.                  +W
|-------------------------------|-----------------------|
|-------------------------------|-----------------------|
|--4----------(4)---------------|--(4)------------------|
|-------------------------------|-----------------------|
|--2----------(2)---------------|--(2)------------------|
|-------------------------------|-----------------------|


         Q=100    Q=80                     Q=90
  F#m/E
   ~~~~~~~~~~~~~
   Q       Q.      E  S  T  T  T  T.  T.     Q.    +E    E  +T   E  E. T
|-21b22---21b22---21-22-21-22-21-19------|----------------------22-------|
|------------------------------------22--|--22----(22)\-19-(19)----19----|
|----------------------------------------|-------------------------------|
|----------------------------------------|-------------------------------|
|----------------------------------------|-------------------------------|
|----------------------------------------|-------------------------------|
|
|  <
|  Q      +H.                               +W
|--9------(9)----------------------------|--(9)--------------------------|
|-10-----(10)----------------------------|-(10)--------------------------|
|-11-----(11)----------------------------|-(11)--------------------------|
|-14-----(14)----------------------------|-(14)--------------------------|
|----------------------------------------|-------------------------------|
|----------------------------------------|-------------------------------|
|
| +W                                        +W
|----------------------------------------|-------------------------------|
|----------------------------------------|-------------------------------|
|-(4)------------------------------------|--(4)--------------------------|
|----------------------------------------|-------------------------------|
|-(2)------------------------------------|--(2)--------------------------|
|----------------------------------------|-------------------------------|


  Em
 4/4                                3/8
                                ~~~~
                                                 |--3--|
   Q.       +Q        Q   +S   +S     T   S  S.  T  T  T  +T   S.
|----------------------------------|------------------------------|
|-19-------(19)b20===19--(19)r(19)-|-19s=17-19--19-17s15-(15)-17--|
|----------------------------------|------------------------------|
|----------------------------------|------------------------------|
|----------------------------------|------------------------------|
|----------------------------------|------------------------------|
|
|  <
|  Q   +H.                           +Q.
|--7---(7)-------------------------|-(7)--------------------------|
|--8---(8)-------------------------|-(8)--------------------------|
|--9---(9)-------------------------|-(9)--------------------------|
|----------------------------------|------------------------------|
|----------------------------------|------------------------------|
|----------------------------------|------------------------------|
|
|  <
|  Q   +H.                           +Q.
|----------------------------------|------------------------------|
|----------------------------------|------------------------------|
|----------------------------------|------------------------------|
|--2---(2)-------------------------|-(2)--------------------------|
|----------------------------------|------------------------------|
|--2---(2)-------------------------|-(2)--------------------------|


  Q=110
 4/4
        |--3--|  |-----6:7------|
    E   S  S  S  S  S  S  S  S  S  S.  S.
|-----------------------------------------|
|-\12--15----12---------------------------|
|---------14----12-14----12-------12--14--|
|---------------------14----12-14---------|
|-----------------------------------------|
|-----------------------------------------|
|
|  +W
|--(7)------------------------------------|
|--(8)------------------------------------|
|--(9)------------------------------------|
|-----------------------------------------|
|-----------------------------------------|
|-----------------------------------------|
|
|  +W
|-----------------------------------------|
|-----------------------------------------|
|-----------------------------------------|
|--(2)------------------------------------|
|-----------------------------------------|
|--(2)------------------------------------|


  Q=130                          Q=92
  C
 3/4                              4/4
   E  +Q           +E    S  S  E    W
|--------------------------------|------------|
|--------------------------------|------------|
|-14-(14)b16======(14)r-14-12----|------------|
|-----------------------------14-|-14---------|
|--------------------------------|------------|
|--------------------------------|------------|
|
|  <
|  Q          +H                   +W
|--3----------(3)----------------|-(3)--------|
|--5----------(5)----------------|-(5)--------|
|--5----------(5)----------------|-(5)--------|
|--5----------(5)----------------|-(5)--------|
|--------------------------------|------------|
|--------------------------------|------------|
|
|  <
|  Q          +H                   +W
|--------------------------------|------------|
|--------------------------------|------------|
|--5----------(5)----------------|-(5)--------|
|--------------------------------|------------|
|--3----------(3)----------------|-(3)--------|
|--------------------------------|------------|


 4/4
                      |---------3---------|
   S. S  S  S  S  S.  q  S      +E   +S   q S
|----------------------------------------------|
|----------------------------------------------|
|-------------12-14--16-14b16==(14)r(14)-12----|
|-------12-14----------------------------------|
|----------------------------------------------|
|----------------------------------------------|
|
| +W
|-(3)------------------------------------------|
|-(5)------------------------------------------|
|-(5)------------------------------------------|
|-(5)------------------------------------------|
|----------------------------------------------|
|----------------------------------------------|
|
| +W
|----------------------------------------------|
|----------------------------------------------|
|-(5)------------------------------------------|
|----------------------------------------------|
|-(3)------------------------------------------|
|----------------------------------------------|


  Q=115             Q=70
  Bm
                               |-3--| |-3--|
   H.         E E    E  +Q.   +E  E E E E  E
|-----------------|--------------------------|
|-----------------|---------------------7-10-|
|-11----------9-7-|--7--(7)---(7)-6-7-9------|
|-----------------|--------------------------|
|-----------------|--------------------------|
|-----------------|--------------------------|
|
|  <
|  Q   +H.          +W
|--2---(2)--------|-(2)----------------------|
|--3---(3)--------|-(3)----------------------|
|--4---(4)--------|-(4)----------------------|
|--4---(4)--------|-(4)----------------------|
|-----------------|--------------------------|
|-----------------|--------------------------|
|
|  <
|  Q   +H.          +W
|-----------------|--------------------------|
|-----------------|--------------------------|
|--4---(4)--------|-(4)----------------------|
|-----------------|--------------------------|
|-----------------|--------------------------|
|-----------------|--------------------------|


  Q=90                     Q=95
  Csus2/G                                    Am
  H       +E  S S  S S E    Q.   S. S. S. S. Q
|------------------------|-----------------------|
|-8-------(8)-7-8-10-7---|-----------------------|
|----------------------7-|-/9----7-----5-----4---|
|------------------------|-----------------------|
|------------------------|-----------------------|
|------------------------|-----------------------|
|
| <                                          <
| Q  +H.                   +H.               Q
|-3--(3)-----------------|-(3)-------------------|
|-3--(3)-----------------|-(3)---------------5---|
|-5--(5)-----------------|-(5)---------------5---|
|-5--(5)-----------------|-(5)---------------7---|
|------------------------|-----------------------|
|------------------------|-----------------------|
|
| <                                          <
| Q  +H.                   +H.               Q
|------------------------|-----------------------|
|------------------------|-----------------------|
|-5--(5)-----------------|-(5)---------------2---|
|------------------------|-----------------------|
|-3--(3)-----------------|-(3)---------------0---|
|------------------------|-----------------------|


                                                     Bbmaj7/A
       |-3--|
  +E. +S  S S +T  S. S +H       +Q.    S. S. S. S. E E
|-----------------------------|------------------------|
|-----------------------------|--------------------5-6-|
|-(4)-(4)-5-4-(4)-------------|--------------5--7------|
|-----------------7--7-(7)----|-(7)----7--9------------|
|-----------------------------|------------------------|
|-----------------------------|------------------------|
|
|                                                    <
| +W                            +H..                 E
|-----------------------------|----------------------6-|
|-(5)-------------------------|-(5)------------------6-|
|-(5)-------------------------|-(5)------------------7-|
|-(7)-------------------------|-(7)------------------7-|
|-----------------------------|------------------------|
|-----------------------------|------------------------|
|
|                                                    <
| +W                            +H..                 E
|-----------------------------|------------------------|
|-----------------------------|------------------------|
|-(2)-------------------------|-(2)------------------3-|
|-----------------------------|------------------------|
|-(0)-------------------------|-(0)------------------1-|
|-----------------------------|------------------------|


  Q=102
          ~~~~~~~~~~~~~~~~~~~~~
   Q     +H.        +H     +Q   E E
|-----------------|-------------------|
|--5b6===(5)------|-(5)r===(5)--------|
|-----------------|-------------7-5---|
|-----------------|-------------------|
|-----------------|-------------------|
|-----------------|-------------------|
|
| +W                +W
|-(6)-------------|-(6)---------------|
|-(6)-------------|-(6)---------------|
|-(7)-------------|-(7)---------------|
|-(7)-------------|-(7)---------------|
|-----------------|-------------------|
|-----------------|-------------------|
|
| +W                +W
|-----------------|-------------------|
|-----------------|-------------------|
|-(3)-------------|-(3)---------------|
|-----------------|-------------------|
|-(1)-------------|-(1)---------------|
|-----------------|-------------------|


            Gm
   E  Q..     S S S  E  E   +H     +E   Q.
|-------------------------|------------------|
|-------------------------|------------------|
|-------------------------|------------------|
|--8--7-------7-8-7--5--5-|-(5)----(5)\------|
|-------------------------|------------------|
|-------------------------|------------------|
|
|           <
|  H        Q       +Q      +W
|--6----------------------|------------------|
|--6--------3-------(3)---|-(3)--------------|
|--7--------3-------(3)---|-(3)--------------|
|--7--------5-------(5)---|-(5)--------------|
|-------------------------|------------------|
|-------------------------|------------------|
|
|           <
| +H        Q       +Q      +W
|-------------------------|------------------|
|-------------------------|------------------|
|-(3)---------------------|------------------|
|-----------5-------(5)---|-(5)--------------|
|-(1)---------------------|------------------|
|-----------5-------(5)---|-(5)--------------|


 7/8                 4/4
                                              ~~
                                         |-3--|
   S   S S S H    E    S  S S S +E  Q  S S S  S +E.
|-------------------|--------------------------------|
|-------------------|--------------------------------|
|--------3-5-7------|-------5-7-(7)------5-7-/9-(9)--|
|--5---7------------|--7--8--------------------------|
|-------------------|--------------------------------|
|-------------------|--------------------------------|
|
| +H..                +W
|-------------------|--------------------------------|
|-(3)---------------|-(3)----------------------------|
|-(3)---------------|-(3)----------------------------|
|-(5)---------------|-(5)----------------------------|
|-------------------|--------------------------------|
|-------------------|--------------------------------|
|
| +H..                +W
|-------------------|--------------------------------|
|-------------------|--------------------------------|
|-------------------|--------------------------------|
|-(5)---------------|-(5)----------------------------|
|-------------------|--------------------------------|
|-(5)---------------|-(5)----------------------------|


                               Q=90                Q
 3/4                          4/4
          ~~~~~~~               ~~~
   |--3---|           |-3--|
   S  S   S  +Q   Q   S S  S    H     E S  S  +Q
|----------------------------|---------------------|
|----------------------------|---------------------|
|--7--9-/10-(10)--------9-10-|-12-------9-10-(10)--|
|--------------------12------|---------------------|
|----------------------------|---------------------|
|----------------------------|---------------------|
|
| +H.                          +W
|----------------------------|---------------------|
|-(3)------------------------|-(3)-----------------|
|-(3)------------------------|-(3)-----------------|
|-(5)------------------------|-(5)-----------------|
|----------------------------|---------------------|
|----------------------------|---------------------|
|
| +H.                          +W
|----------------------------|---------------------|
|----------------------------|---------------------|
|----------------------------|---------------------|
|-(5)------------------------|-(5)-----------------|
|----------------------------|---------------------|
|-(5)------------------------|-(5)-----------------|


 =77                Q=73                Q=78
                    D5
 2/4               4/4
                                                             ~~~~
   E  +E     +Q     H.         +E.  S    H.       +E.  S    +W
|-----------------|-------------------|-10-------(10)s22-|-(22)----*|
|-----------------|-------------------|------------------|---------*|
|--9--(9)b10r(9)--|-7----------(7)s19-|------------------|---------*|
|-----------------|-------------------|------------------|---------*|
|-----------------|-------------------|------------------|---------*|
|-----------------|-------------------|------------------|---------*|
|
|                   <
| +H                Q   +H.             +W                  +W
|-----------------|-------------------|------------------|---------*|
|-(3)-------------|-------------------|------------------|---------*|
|-(3)-------------|-------------------|------------------|---------*|
|-(5)-------------|-------------------|------------------|---------*|
|-----------------|-5---(5)-----------|-(5)--------------|--(5)----*|
|-----------------|-0---(0)-----------|-(0)--------------|--(0)----*|
|
|                   <
| +H                Q   +H.             +W                  +W
|-----------------|-------------------|------------------|---------*|
|-----------------|-------------------|------------------|---------*|
|-----------------|-------------------|------------------|---------*|
|-(5)-------------|-------------------|------------------|---------*|
|-----------------|-5---(5)-----------|-(5)--------------|--(5)----*|
|-(5)-------------|-0---(0)-----------|-(0)--------------|--(0)----*|


Duration Legend
---------------
W - whole; H - half; Q - quarter; E - 8th; S - 16th; T - 32nd; X - 64th; a - acciaccatura
+ - note tied to previous; . - note dotted; .. - note double dotted
Uncapitalized letters represent notes that are staccato (1/2 duration)
Irregular groupings are notated above the duration line
Duration letters will always appear directly above the note/fret number it represents the
duration for.  Duration letters with no fret number below them represent rests.  Multi-
bar rests are notated in the form Wxn, where n is the number of bars to rest for.  Low
melody durations appear below the staff

Tablature Legend
----------------
 h   - hammer-on
 p   - pull-off
 b   - bend
 pb  - pre-bend
 r   - bend release (if no number after the r, then release immediately)
 /\  - slide into or out of (from/to "nowhere")
 s   - legato slide
 S   - shift slide
  - natural harmonic
[n]  - artificial harmonic
n(n) - tapped harmonic
 ~   - vibrato
 tr  - trill
 T   - tap
 TP  - trem. picking
 PM  - palm muting
\n/  - tremolo bar dip; n = amount to dip
 \n  - tremolo bar down
 n/  - tremolo bar up
/n\  - tremolo bar inverted dip
 =   - hold bend; also acts as connecting device for hammers/pulls
 <>  - volume swell (louder/softer)
 x   - on rhythm slash represents muted slash
 o   - on rhythm slash represents single note slash

Misc Legend
-----------
 |  - bar
||  - double bar
||o - repeat start
o|| - repeat end
*|  - double bar (ending)
 :  - bar (freetime)
 $  - Segno
 &  - Coda
Tempo markers -  = BPM(8/16=s8/s16), where s8 = swing 8ths, s16 = swing 16ths


***************************************************************************************
***************************************************************************************





Comments


Popular Pain Of Salvation tabs & chords
Beyond The Pale Bass Tabs
Ashes Chords
Healing Now Chords
Second Love 1 Chords
Beyond The Pale Tabs
Chainsling Tabs
Nauticus Intro Tabs
Second Love Tabs
Song For The Innocent Tabs
1979 Ukulele


Song lyrics



↑ Back to top | Tablatures and chords are parodies/interpretations of the original songs. You may use it for private study, scholarship, research or language learning purposes only
© 2014 AZChords.com Contact us | Privacy policy | DMCA | Add/correct tabs | Request tabs | Top 50 tabs