>
 >
Dryad Of The Woods

Dryad Of The Woods Guitar Tabs

Pain Of Salvation - Dryad Of The Woods chords, tabs, tablatures, lyrics

Guitar lessons | Add/correct | Request | Top 50 tabs Artists:  A B C D E F G H I J K L M N O P Q R S T U V W X Y Z 0-9

Dryad Of The Woods Guitar Tabs – Pain Of Salvation

CD, Sheet music, Poster

Do you like Dryad Of The Woods? Share with your friends now
Tabs
Dryad of the Woods                           


                                                     Pain of Salvation
Daniel Gildenl÷w - guitar



     Am         G             F          C    G     
     ^          ^             ^               ^     
     E  E  Q    E  E  Q       Q    E  E  Q    Q     
E||------------------------|-----------------------|
B||--1--0-------0----------|-----------------------|
G||--------2-------2--0----|--2----0----------0----|
D||--2----------0----------|--3-------3--2----0----|
A||--0---------------------|-------------3----2----|
E||-------------3----------|--1--------------------|


  A5          Dsus2             Esus4       E/D        
  ^           ^                 ^                      
  E  E  E  E  E     E  E  E     Q     E  E  Q    Q     
--------------0-----1--------|------------------------|
-----0--1--3-----------3--1--|--0-----0-----0---------|
--2-----------2--------------|--2-----2-----1----1----|
--2-----------0--------------|-------------------0----|
--0--------------------------|------------------------|
-----------------------------|--0--------0------------|


  Am         G             F          E5          
  ^          ^             ^          ^           
  E  E  Q    E  E  Q       Q    E  E  E  E  Q     
------------------------|------------------------|
--1--0-------0----------|------------------------|
--------2-------2--0----|--2----0-----------1----|
--2----------0----------|--3-------3--2--2-------|
--0---------------------|-------------2----------|
-------------3----------|--1----------0----------|


  C/F          Asus2             Bb5          E            
  ^            ^                 ^            ^            
  E   E  E  E  E     E  E  E     E   E  E  E  E  E  E  E   
------------------------------|---------------------------|
---------------0-----1-----0--|------------------------0--|
---------0--2--2--------2-----|--3---2--0--------1--2-----|
--2---3-----------------------|--3---------3--2-----------|
--3------------0--------------|--1------------2-----------|
--1---------------------------|---------------0-----------|


  Am         G             F          C    G     
  ^          ^             ^               ^     
  E  E  Q    E  E  Q       Q    E  E  Q    Q     
------------------------|-----------------------|
--1--0-------0----------|-----------------------|
--------2-------2--0----|--2----0----------0----|
--2----------0----------|--3-------3--2----0----|
--0---------------------|-------------3----2----|
-------------3----------|--1--------------------|


  A5          Dsus2             Esus4       E/D        
  ^           ^                 ^                      
  E  E  E  E  E     E  E  E     Q     E  E  Q    Q     
--------------0-----1--------|------------------------|
-----0--1--3-----------3--1--|--0-----0-----0---------|
--2-----------2--------------|--2-----2-----1----1----|
--2-----------0--------------|-------------------0----|
--0--------------------------|------------------------|
-----------------------------|--0--------0------------|


  Am         G             F          E           
  ^          ^             ^          ^           
  E  E  Q    E  E  Q       Q    E  E  E  E  Q     
------------------------|------------------------|
--1--0-------0----------|------------------------|
--------2-------2--0----|--2----0-----------1----|
--2----------0----------|--3-------3--2--2-------|
--0---------------------|-------------2----------|
-------------3----------|--1----------0----------|


  F7M          Asus2             Bb5          E            
  ^            ^                 ^            ^            
  E   E  E  E  E     E  E  E     E   E  E  E  E  E  E  E   
------------------------------|---------------------------|
---------------0-----1-----0--|------------------------0--|
---------0--2--2--------2-----|--3---2--0--------1--2-----|
--2---3-----------------------|--3---------3--2-----------|
--3------------0--------------|--1------------2-----------|
--1---------------------------|---------------0-----------|


  Am         G             Am          Em          
  ^          ^             ^                       
  E  E  Q    E  E  Q       E  E  E  E  E  E  Q     
--0--1--0-------0-------|--------0----------------|
--1----------3-----3----|--1--3-----1--0----------|
-------------4-----4----|--2--------------0-------|
------------------------|--------------------2----|
--0---------------------|--0----------------------|
-------------3----------|-------------------------|


                               rit.                           
  Am         Am/G#             Am/G          Asus2            
  ^          ^                 ^                              
  E  E  Q    E     E  E  E     E    E  E  E  E     S  S Q     
--0--1--0----0-----1--0-----|--0----1--0--5--0---------------|
--1----------1-----------1--|--1-------------------1p-0------|
----------------------------|---------------------------2----|
----------------------------|--------------------------------|
--0-------------------------|--------------------------------|
-------------4--------------|--3-----------------------------|


  Fsus2          Em             G           D/F#           
  ^              ^              ^                          
  E     E  E  E  E  E  E  E     E  E  E  E  E    E  E  E   
-----------------------------|----------------------------|
-----------------------------|----------------------------|
--0--------------0-----0-----|-----------0----------2-----|
--------0--2--3-----4-----2--|--0-----0-----0----------0--|
--3--------------2-----------|-----2-------------0--------|
--1--------------0-----------|--3-----------2-------------|


  Fsus2          Em             G           Em              
  ^              ^                                          
  E     E  E  E  E  E  E  E     E  E  E  E  S  S  E  E  E   
-----------------------------|-----------------------------|
-----------------------------|--------------0h-1p-0--------|
--0--------------0-----0-----|-----------2-----------0-----|
--------0--2--3-----4-----2--|--0-----0--------------------|
--3--------------2-----------|-----2-----------------------|
--1--------------0-----------|--3-----2-----0-----------0--|


  Fsus2          Em             G           D/F#           
  ^              ^              ^                          
  E     E  E  E  E  E  E  E     E  E  E  E  E    E  E  E   
-----------------------------|----------------------------|
-----------------------------|----------------------------|
--0--------------0-----0-----|-----------0----------2-----|
--------0--2--3-----4-----2--|--0-----0-----0----------0--|
--3--------------2-----------|-----2-------------0--------|
--1--------------0-----------|--3-----------2-------------|


  Fsus2          Em             G     D/F#    G               
  ^              ^                                            
  E     E  E  E  E  E  E  E     E  E  E    E  S  S  E  E  E   
-----------------------------|-------------------------------|
-----------------------------|----------------0h-1p-0--------|
--0--------------0-----0-----|-------------2-----------0-----|
--------0--2--3-----4-----2--|--0-----0-------------------3--|
--3--------------2-----------|-----2-------------------------|
--1--------------0-----------|--3-----2-------3--------------|


  S S S S S S S S E  S S S S S S    S S S S   S  S S   S  S S Q.      
---------------------------------|---------------5-------------------|
---------------------------0-----|--------3h-(5)---5p-(3)-3-1-1------|
--------0-0------------0-2---2-0-|------2-----------------0-0-0------|
--0-2-2-----2-2---0--0-----------|--0-2------------------------------|
----------------3----------------|-----------------------------------|
---------------------------------|-----------------------------------|


  S S S S S S S S E  S S S S S S    S S S S   S  S S   S  H         
---------------------------------|---------------5-----------------|
---------------------------0-----|--------3h-(5)---5p-(3)-1--------|
--------0-0------------0-2---2-0-|------2-----------------0--------|
--0-2-2-----2-2---0--0-----------|--0-2----------------------------|
----------------3----------------|---------------------------------|
---------------------------------|---------------------------------|


  S S S S S S S S E  S S S S S S    S S S S   S  S S   S  S S Q.      
---------------------------------|---------------5-------------------|
---------------------------0-----|--------3h-(5)---5p-(3)-3-1-1------|
--------0-0------------0-2---2-0-|------2-----------------0-0-0------|
--0-2-2-----2-2---0--0-----------|--0-2------------------------------|
----------------3----------------|-----------------------------------|
---------------------------------|-----------------------------------|


                                                          ^         
  S S S S S S S S E  S S S S S S    S S S S   S  S S   S  H         
---------------------------------|---------------5-----------------|
---------------------------0-----|--------3h-(5)---5p-(3)-2--------|
--------0-0------------0-2---2-0-|------2-----------------2--------|
--0-2-2-----2-2---0--0-----------|--0-2----------------------------|
----------------3----------------|------------------------0--------|
---------------------------------|---------------------------------|


  Am         G             F          C    G     
  ^          ^             ^               ^     
  E  E  Q    E  E  Q       Q    E  E  Q    Q     
------------------------|-----------------------|
--1--0-------0----------|-----------------------|
--------2-------2--0----|--2----0----------0----|
--2----------0----------|--3-------3--2----0----|
--0---------------------|-------------3----2----|
-------------3----------|--1--------------------|


  A5          Dsus2             Esus4       E/D        
  ^           ^                 ^                      
  E  E  E  E  E     E  E  E     Q     E  E  Q    Q     
--------------0-----1--------|------------------------|
-----0--1--3-----------3--1--|--0-----0-----0---------|
--2-----------2--------------|--2-----2-----1----1----|
--2-----------0--------------|-------------------0----|
--0--------------------------|------------------------|
-----------------------------|--0--------0------------|


  Am          G             F          E         
  ^           ^             ^          ^         
  E  E  E  E  E  E  Q       Q    E  E  H         
-------------------------|----------------------|
--1--0--------0----------|----------------------|
--------2--------2--0----|--2----0-----1--------|
--2-----------0----------|--3-------3--2--------|
--0--------0-------------|----------------------|
--------------3----------|--1----------0--------|


  F7M          Asus2             Bb5          E5           
  ^            ^                 ^            ^            
  E   E  E  E  E     E  E  E     E   E  E  E  E  E  E  E   
------------------------------|---------------------------|
---------------0-----1-----0--|------------------------0--|
---------0--2--2--------2-----|--3---2--0--------1--2-----|
--2---3-----------------------|--3---------3--2-----------|
--3------------0--------------|--1------------2-----------|
--1---------------------------|---------------0-----------|


  Am         E7            Am          Em          
  ^          ^             ^                       
  E  E  Q    E  E  Q       E  E  E  E  E  E  Q     
--0--1--0-------0-------|--------0----------------|
--1----------3-----3----|--1--3-----1--0----------|
-------------4-----4----|--2--------------0-------|
------------------------|--------------------2----|
--0---------------------|--0----------------------|
-------------0----------|-------------------------|


                               rit.                           
  Am         Am/G#             Am/G          Asus2            
  ^                            ^                              
  E  E  Q    E     E  E  E     E    E  E  E  E     S  S Q     
--0--1--0----0-----1--0-----|--0----1--0--5--0---------------|
--1----------1-----------1--|--1-------------------1p-0------|
----------------------------|---------------------------2----|
----------------------------|--------------------------------|
--0-------------------------|--------------------------------|
-------------4--------------|--3-----------------------------|


  Fsus2          Em             G           D/F#           
  ^              ^              ^                          
  E     E  E  E  E  E  E  E     E  E  E  E  E    E  E  E   
-----------------------------|----------------------------|
-----------------------------|----------------------------|
--0--------------0-----0-----|-----------0----------2-----|
--------0--2--3-----4-----2--|--0-----0-----0----------0--|
--3--------------2-----------|-----2-------------0--------|
--1--------------0-----------|--3-----------2-------------|


  Fsus2          Em             G           Em              
  ^              ^                                          
  E     E  E  E  E  E  E  E     E  E  E  E  S  S  E  E  E   
-----------------------------|-----------------------------|
-----------------------------|--------------0h-1p-0--------|
--0--------------0-----0-----|-----------2-----------0-----|
--------0--2--3-----4-----2--|--0-----0--------------------|
--3--------------2-----------|-----2-----------------------|
--1--------------0-----------|--3-----2-----0-----------0--|


  Fsus2          Em             G           D/F#           
  ^              ^              ^                          
  E     E  E  E  E  E  E  E     E  E  E  E  E    E  E  E   
-----------------------------|----------------------------|
-----------------------------|----------------------------|
--0--------------0-----0-----|-----------0----------2-----|
--------0--2--3-----4-----2--|--0-----0-----0----------0--|
--3--------------2-----------|-----2-------------0--------|
--1--------------0-----------|--3-----------2-------------|


  Fsus2          Em             G     D/F#    G               
  ^              ^                                            
  E     E  E  E  E  E  E  E     E  E  E    E  S  S  E  E  E   
-----------------------------|-------------------------------|
-----------------------------|----------------0h-1p-0--------|
--0--------------0-----0-----|-------------2-----------0-----|
--------0--2--3-----4-----2--|--0-----0-------------------3--|
--3--------------2-----------|-----2-------------------------|
--1--------------0-----------|--3-----2-------3--------------|


  S S S S S S S S E  S S S S S S    S S S S   S  S S   S  S S Q.      
---------------------------------|---------------5-------------------|
---------------------------0-----|--------3h-(5)---5p-(3)-3-1-1------|
--------0-0------------0-2---2-0-|------2-----------------0-0-0------|
--0-2-2-----2-2---0--0-----------|--0-2------------------------------|
----------------3----------------|-----------------------------------|
---------------------------------|-----------------------------------|


  S S S S S S S S E  S S S S S S    S S S S   S  S S   S  H         
---------------------------------|---------------5-----------------|
---------------------------0-----|--------3h-(5)---5p-(3)-1--------|
--------0-0------------0-2---2-0-|------2-----------------0--------|
--0-2-2-----2-2---0--0-----------|--0-2----------------------------|
----------------3----------------|---------------------------------|
---------------------------------|---------------------------------|


  S S S S S S S S E  S S S S S S    S S S S   S  S S   S  S S Q.      
---------------------------------|---------------5-------------------|
---------------------------0-----|--------3h-(5)---5p-(3)-3-1-1------|
--------0-0------------0-2---2-0-|------2-----------------0-0-0------|
--0-2-2-----2-2---0--0-----------|--0-2------------------------------|
----------------3----------------|-----------------------------------|
---------------------------------|-----------------------------------|


                                                          ^         
  S S S S S S S S E  S S S S S S    S S S S   S  S S   S  H         
---------------------------------|---------------5-----------------|
---------------------------0-----|--------3h-(5)---5p-(3)-2--------|
--------0-0------------0-2---2-0-|------2-----------------2--------|
--0-2-2-----2-2---0--0-----------|--0-2----------------------------|
----------------3----------------|------------------------0--------|
---------------------------------|---------------------------------|


  S E  E  E  E  E  E  E  S    S E  E  E  E  E  E  E  S  
----0-----0-----0-----0----|----0-----0-----0-----0----|
-------4-----2-----0-------|-------4-----2-----0-----2-|
-------------------------2-|--L------------------------|
---------------------------|---------------------------|
---------------------------|---------------------------|
---------------------------|---------------------------|


  S E  E  E  E  E  E  E  S    S E  E  E  E  E  E  E  S  
----0-----0-----0-----0----|----0-----0-----0-----0----|
--L----4-----2-----0-------|-------4-----2-----0-----2-|
-------------------------1-|--L------------------------|
---------------------------|---------------------------|
---------------------------|---------------------------|
---------------------------|---------------------------|


  S E  E  E  E  E  E  E  S    S E  E  E  E  E  E  E  S  
----0-----0-----0-----0----|----0-----0-----0-----0----|
--L----4-----2-----0-------|-------4-----2-----0-----2-|
-------------------------2-|--L------------------------|
---------------------------|---------------------------|
---------------------------|---------------------------|
---------------------------|---------------------------|


  S E  E  E  E  E  E  E  S    S E  E  E  E  E  E  E  S  
----0-----0-----0-----0----|----0-----0-----0-----0----|
--L----4-----2-----0-------|-------4-----2-----0-----2-|
-------------------------1-|--L------------------------|
---------------------------|---------------------------|
---------------------------|---------------------------|
---------------------------|---------------------------|


  S E  E  E  E  E  E  E  S    S E  E  E  E  E  E  E  S  
----0-----0-----0-----0----|----0-----0-----0-----0----|
--L----4-----2-----0-------|-------4-----2-----0-----2-|
-------------------------2-|--L------------------------|
---------------------------|---------------------------|
---------------------------|---------------------------|
---------------------------|---------------------------|


  S E  E  E  E  E  E  E  S    S E  E  E  E  E  E  E  S  
----0-----0-----0-----0----|----0-----0-----0-----0----|
--L----4-----2-----0-------|-------4-----2-----0-----2-|
-------------------------1-|--L------------------------|
---------------------------|---------------------------|
---------------------------|---------------------------|
---------------------------|---------------------------|


  S E  E  E  E  E  E  E  S    S E  E  E  E  E  E  E  S  
----0-----0-----0-----0----|----0-----0-----0-----0----|
--L----4-----2-----0-------|-------4-----2-----0-----2-|
-------------------------2-|--L------------------------|
---------------------------|---------------------------|
---------------------------|---------------------------|
---------------------------|---------------------------|


  S E  E  E  E  E  E  E  S    S E  E  E  E  E  E  E  S  
----0-----0-----0-----0----|----0-----0-----0-----0----|
--L----4-----2-----0-------|-------4-----2-----0-----2-|
-------------------------1-|--L------------------------|
---------------------------|---------------------------|
---------------------------|---------------------------|
---------------------------|---------------------------|


  S E  E  E  E  E  E  E  S    S E  E  E  E  E  E  E  S  
----0-----0-----0-----0----|----0-----0-----0-----0----|
--L----4-----2-----0-------|-------4-----2-----0-----2-|
-------------------------2-|--L------------------------|
---------------------------|---------------------------|
---------------------------|---------------------------|
---------------------------|---------------------------|


  S E  E  E  E  E  E  E  S    S E  E  E  E  E  E  E  S  
----0-----0-----0-----0----|----0-----0-----0-----0----|
--L----4-----2-----0-------|-------4-----2-----0-----2-|
-------------------------1-|--L------------------------|
---------------------------|---------------------------|
---------------------------|---------------------------|
---------------------------|---------------------------|


  S E  E  E  E  E  E  E  S    S E  E  E  E  E  E  E  S  
----0-----0-----0-----0----|----0-----0-----0-----0----|
--L----4-----2-----0-------|-------4-----2-----0-----2-|
-------------------------2-|--L------------------------|
---------------------------|---------------------------|
---------------------------|---------------------------|
---------------------------|---------------------------|


  S E  E  E  E  E  E  E  S    S E  E  E  E  E  E  E  S  
----0-----0-----0-----0----|----0-----0-----0-----0----|
--L----4-----2-----0-------|-------4-----2-----0-----2-|
-------------------------1-|--L------------------------|
---------------------------|---------------------------|
---------------------------|---------------------------|
---------------------------|---------------------------|


  S E  E  E  E  E  E  E  S    S E  E  E  E  E  E  E  S  
----0-----0-----0-----0----|----0-----0-----0-----0----|
--L----4-----2-----0-------|-------4-----2-----0-----2-|
-------------------------2-|--L------------------------|
---------------------------|---------------------------|
---------------------------|---------------------------|
---------------------------|---------------------------|


  S E  E  E  E  E  E  E  S    S E  E  E  E  E  E  E  S  
----0-----0-----0-----0----|----0-----0-----0-----0----|
--L----4-----2-----0-------|-------4-----2-----0-----2-|
-------------------------1-|--L------------------------|
---------------------------|---------------------------|
---------------------------|---------------------------|
---------------------------|---------------------------|


  S E  E  E  E  E  E  E  S    S E  E  E  E  E  E  E  S  
----0-----0-----0-----0----|----0-----0-----0-----0----|
--L----4-----2-----0-------|-------4-----2-----0-----2-|
-------------------------2-|--L------------------------|
---------------------------|---------------------------|
---------------------------|---------------------------|
---------------------------|---------------------------|


  S E  E  E  E  E  E  E  S    S E  E  E  E  E  E  E  S   
----0-----0-----0-----0----|----0-----0-----0-----0----||
--L----4-----2-----0-------|-------4-----2-----0-----2-||
-------------------------1-|--L------------------------||
---------------------------|---------------------------||
---------------------------|---------------------------||
---------------------------|---------------------------||




Duration Legend
---------------
W - whole
H - half
Q - quarter
E - 8th
S - 16th
T - 32nd
X - 64th
. - note dotted
|-n-|  - n-tuplets


Tablature Legend
----------------
L - tied note
x - dead note
g - grace note
(n) - ghost note
> - accentuded note
NH - natural harmonic
AH - artificial harmonic
TH - tapped harmonic
SH - semi harmonic
PH - pitch harmonic
h - hammer on
p - pull off
b - bend
br - bendRelease
pb - preBend
pbr - preBendRelease
brb - bendReleaseBend
\n/ - tremolo bar dip
\n - tremolo bar dive
-/n - tremolo bar Release up
/n\ - tremolo bar inverted dip
/n - tremolo bar return
-\n - tremolo bar Release down
S - shift slide
s - legato slide
/ -  slide into from below or out of upwards
\ -  slide into from above or out of downwards
~ - vibrato
W - wide vibrato
tr - trill
TP - tremolo picking
T - tapping
S - slap
P - pop
< - fade in
^ - brush up
v - brush down





Comments


Popular Pain Of Salvation tabs & chords
Deus Nova Bass Tabs
Fandango Bass Tabs
Ashes Chords
Second Love Chords
Second Love 1 Chords
Beyond The Pale Tabs
Linoleum Tabs
Second Love Tabs
Softly She Cries Tabs
No Way Ukulele


Song lyrics



↑ Back to top | Tablatures and chords are parodies/interpretations of the original songs. You may use it for private study, scholarship, research or language learning purposes only
© 2014 AZChords.com Contact us | Privacy policy | DMCA | Add/correct tabs | Request tabs | Top 50 tabs