>
 >
Disco Queen

Disco Queen Guitar Tabs

Pain Of Salvation - Disco Queen chords, tabs, tablatures, lyrics

Guitar lessons | Add/correct | Request | Top 50 tabs Artists:  A B C D E F G H I J K L M N O P Q R S T U V W X Y Z 0-9

Disco Queen Guitar Tabs – Pain Of Salvation

CD, Sheet music, Poster

Do you like Disco Queen? Share with your friends now
Tabs
Pain Of Salvation - Disco Queen

Tuning: A E A D G B E

---------------------

Intro riff/chorus
|-------------------|---------------------|-------------------|-------------------|
|-------------------|---------------------|-------------------|-------------------|
|----7---7---7---7--|----10---10---5---5--|----3---3---3---3--|-------------------|
|-------------------|---------------------|-------------------|----5---5---5---5--|
|--5---5---5---5----|--8----8----3---3----|--1---1---1---1----|-------------------|
|-------------------|---------------------|-------------------|--3---3---3---3----|
|-------------------|---------------------|-------------------|-------------------|

First two repeats are sampled, with wah effects. For the rest of the song, these parts 
played with distortion.

---------------------

"Oooh ooooooh ooh ooh ooh ooh AAAAAH!"
|--------------------|---------------------|--------------------|--------------------|
|--------------------|----------6----------|--------------------|--------------------|
|--x-x-7-xx-7---5----|--5-7--xx-5----------|--x-x-7-xx-7---5----|--5-7--xx-5---------|
|--x-x-7-xx-7---5-7--|--5-7--xx------------|--x-x-7-xx-7---5-7--|--5-7--xx-3---------|
|--------------------|---------------------|--------------------|--------------------|
|--------------------|---------------------|--------------------|--------------------|
|--------------------|---------------------|--------------------|--------------------|
|
|--------------------|---------------------|--------------------|--------------------|
|--------------------|---------------------|--------------------|--------------------|
|-----7---7---7---7--|----10---10---5---5--|----3---3---3---3---|--------------------|
|--------------------|---------------------|--------------------|----5---5---5---5---|
|---5---5---5---5----|--8----8----3---3----|--1---1---1---1-----|--------------------|
|--------------------|---------------------|--------------------|--3---3---3---3-----|
|--------------------|---------------------|--------------------|--------------------|

---------------------

"Tonight... I'll fall"
(With wah)
|--------------------|--------------------|--------------------|--------------------|
|-----------------7--|-------6---------8--|--------------------|--------------------|
|-----------------7--|-------7---------7--|--------------------|--------------------|
|-----------------7--|-------7---------8--|--------------------|--------------------|
|--5-----------------|--------------------|--------------------|--------------------|
|--5-----------------|--------------------|--------------------|--------------------|
|--5-----------------|--------------------|--------------------|--------------------|
|
| (with wah)
|--------------------|--------------------|--------------------|--------------------|
|--------------------|--------------------|--------------------|--------------------|
|--7-----------------|--------------------|--------------------|--------------------|
|--7-----------------|--------------------|--------------------|--------------------|
|--5-----------------|--------------------|--------------------|--------------------|
|--5-----------------|--------------------|--------------------|--------------------|
|--5-----------------|--------------------|--------------------|--------------------|


|--------------------|--------------------|--------------------|--------------------|
|-----------------7--|-------6---------5--|--------------------|--------------------|
|-----------------7--|-------7---------7--|--------------------|--------------------|
|-----------------7--|-------7---------8--|--------------------|--------------------|
|--5-----------------|--------------------|--------------------|--------------------|
|--5-----------------|--------------------|--------------------|--------------------|
|--5-----------------|--------------------|--------------------|--------------------|
|
|--------------------|--------------------|--------------------|--------------------|
|--------------------|--------------------|--------------------|--------------------|
|--7-----------------|--------------------|--------------------|--------------------|
|--7-----------------|--------------------|--------------------|--------------------|
|--5-----------------|--------------------|--------------------|--------------------|
|--5-----------------|--------------------|--------------------|--------------------|
|--5-----------------|--------------------|--------------------|--------------------|

--------------------

Verse
(w/whammy pedal one octave up)
     /------\        /---\    /-------\        /---\    /-------\        /---\    /-------\        /---\--|
|--17-------------17------18--|-------------18------17--|-------------17------15--|-------------15--------|
|---------15---15------15-----|-----15---15------15-----|-----15---15------15-----|-----15---15------15---|
|-----------------------------|-------------------------|-------------------------|-----------------------|
|-----------------------------|-------------------------|-------------------------|-----------------------|
|-----------------------------|-------------------------|-------------------------|-----------------------|
|-----------------------------|-------------------------|-------------------------|-----------------------|
|-----------------------------|-------------------------|-------------------------|-----------------------|
|
| (with wah)
|-----------------------------|-------------------------|-------------------------|-------------------------|
|-----------------------------|-------------------------|-------------------------|-------------------------|
|-----7------7------7------7--|-----7-----7-----7-----7-|-----7-----7-----7-----7-|-----7-----7--7b-7b-7b-7b|
|-----------------------------|-------------------------|-------------------------|-------------------------|
|--5------5------5------5-----|--5-----5-----5-----5----|--5-----5-----5-----5----|--5-----5----------------|
|-----------------------------|-------------------------|-------------------------|-------------------------|
|-----------------------------|-------------------------|-------------------------|-------------------------|

-------------------

|-------------------|-------------------|-----------------------|-----------------------|
|-------------------|-------------------|-----------------------|-----------------------|
|----7---7---7---7--|----7---7---7---7--|----10---10---10---10--|----10---10---10---10--|
|-------------------|-------------------|-----------------------|-----------------------|
|--5---5---5---5----|--5---5---5---5----|--8----8----8----8-----|--8----8----8----8-----|
|-------------------|-------------------|-----------------------|-----------------------|
|-------------------|-------------------|-----------------------|-----------------------|
|
|-------------------|-------------------|-----------------------|-----------------------|
|-------------------|-------------------|-----------------------|-----------------------|
|----7---7---7---7--|----7---7---7---7--|----7----7----7----7---|----7----7----7----7---|
|-------------------|-------------------|-----------------------|-----------------------|
|--5---5---5---5----|--5---5---5---5----|--5----5----5----5-----|--5----5----5----5-----|
|-------------------|-------------------|-----------------------|-----------------------|
|-------------------|-------------------|-----------------------|-----------------------|


|---------------------------|---------------------------|---------------------------|---------------------------|
|---------------------------|---------------------------|---------------------------|---------------------------|
|-----12----12----12----12--|-----12----12----12----12--|-----15----15----15----15--|-----17----17----17----17--|
|---------------------------|---------------------------|---------------------------|---------------------------|
|--10----10----10----10-----|--10----10----10----10-----|--13----13----13----13-----|--15----15----15----15-----|
|---------------------------|---------------------------|---------------------------|---------------------------|
|---------------------------|---------------------------|---------------------------|---------------------------|
|
|---------------------------|---------------------------|---------------------------|---------------------------|
|---------------------------|---------------------------|---------------------------|---------------------------|
|-----7-----7-----7-----7---|-----7-----7-----7-----7---|-----7-----7-----7-----7---|-----7-----7-----7-----7---|
|---------------------------|---------------------------|---------------------------|---------------------------|
|--5-----5-----5-----5------|--5-----5-----5-----5------|--5-----5-----5-----5------|--5-----5-----5-----5------|
|---------------------------|---------------------------|---------------------------|---------------------------|
|---------------------------|---------------------------|---------------------------|---------------------------|

-------------------

Then play the first three riffs as the chorus again.

-------------------

Play the verse riffs again.

-------------------

On last repeat of the verse riff, Gtr. 1 holds its note and bends it while the other instruments rest:

|--------------------|
|--------------------|
|--(17)b19~~~~~~~~~--|
|--------------------|
|--------------------|
|--------------------|
|--------------------|

-------------------

Then play the first two riffs as the chorus again.

-------------------

Interlude
 (w/wah)
|-------------------|-------------------|-------------------|-------------------|
|-------------------|-------------------|-------------------|-------------------|
|--7~~~~~~~~~~~~~~~~|~~~~~~~~~~~~~~~~~--|--9~~~~~~~~~~~~~~~~|~~~~~~~~~~~~~~~~~--|
|-------------------|-------------------|-------------------|-------------------|
|-------------------|-------------------|-------------------|-------------------|
|-------------------|-------------------|-------------------|-------------------|
|-------------------|-------------------|-------------------|-------------------|
|
|-------------------|-------------------|-------------------|-------------------|
|-------------------|-------------------|-------------------|-------------------|
|----7---7---7---7--|----7---7---7---7--|----7---7---7---7--|----7---7---7---7--|
|-------------------|-------------------|-------------------|-------------------|
|--5---5---5---5----|--5---5---5---5----|--5---5---5---5----|--5---5---5---5----|
|-------------------|-------------------|-------------------|-------------------|
|-------------------|-------------------|-------------------|-------------------|

|-------------------|-------------------|-------------------|-------------------|
|-------------------|-------------------|-------------------|-------------------|
|--10~~~~~~~~~~~~~~~|~~~~~~~~~~~~~~~~~--|--12~~~~~~~~~~~~~~~|~~~~~~~b14~~~~~~~--|
|-------------------|-------------------|-------------------|-------------------|
|-------------------|-------------------|-------------------|-------------------|
|-------------------|-------------------|-------------------|-------------------|
|-------------------|-------------------|-------------------|-------------------|
|
|-------------------|-------------------|-------------------|-------------------|
|-------------------|-------------------|-------------------|-------------------|
|----7---7---7---7--|----7---7---7---7--|----7---7---7---7--|----7---7---7---7--|
|-------------------|-------------------|-------------------|-------------------|
|--5---5---5---5----|--5---5---5---5----|--5---5---5---5----|--5---5---5---5----|
|-------------------|-------------------|-------------------|-------------------|
|-------------------|-------------------|-------------------|-------------------|

-------------------

Bridge

(Time change to 7/4)
 Both gtrs.
|-------------------------------|-------------------------------|
|-------------------------------|-------------------------------|
|----7---7---7---7---7---7---7--|----7---7---7---7---7---7---7--|
|-------------------------------|-------------------------------|
|--5---5---5---5---5---5---5----|--5---5---5---5---5---5---5----|
|-------------------------------|-------------------------------|
|-------------------------------|-------------------------------|

|-------------------------------|-------------------------------|
|-------------------------------|-------------------------------|
|----7---7---7---7---7---7---7--|----7---7---7---7---7---7---7--|
|-------------------------------|-------------------------------|
|--5---5---5---5---5---5---5----|--5---5---5---5---5---5---5----|
|-------------------------------|-------------------------------|
|-------------------------------|-------------------------------|

(w/tremolo)
|-------------------------------|-------------------------------|
|-------------------------------|-------------------------------|
|-------------------------------|-------------------------------|
|--------2---3---------2---3----|--------2---3------------------|
|--0-------------1--------------|--2-------------1~~~~~~~~~~~\\-|
|-------------------------------|-------------------------------|
|-------------------------------|-------------------------------|

 Both gtrs.
|-------------------------------|-------------------------------|
|-------------------------------|-------------------------------|
|----7---7---7---7---7---7---7--|----7---7---7---7---7---7---7--|
|-------------------------------|-------------------------------|
|--5---5---5---5---5---5---5----|--5---5---5---5---5---5---5----|
|-------------------------------|-------------------------------|
|-------------------------------|-------------------------------|

|-------------------------------|-------------------------------|
|-------------------------------|-------------------------------|
|----7---7---7---7---7---7---7--|----7---7---7---7---7---7---7--|
|-------------------------------|-------------------------------|
|--5---5---5---5---5---5---5----|--5---5---5---5---5---5---5----|
|-------------------------------|-------------------------------|
|-------------------------------|-------------------------------|

(w/tremolo)
|-------------------------------|-------------------------------|
|-------------------------------|-------------------------------|
|-------------------------------|-------------------------------|
|--------2---3---------2---3----|--------2---3------------------|
|--0-------------1--------------|--2-------------1~~~~~~~~~~~\\-|
|-------------------------------|-------------------------------|
|-------------------------------|-------------------------------|

|-------------------------------|-------------------------------|
|-------------------------------|-------------------------------|
|-------------------------------|-------------------------------|
|--------2---3---------2---3----|--------2---3------------------|
|--0-------------1--------------|--2-------------3~~~~~~~~~~~\\-|
|-------------------------------|-------------------------------|
|-------------------------------|-------------------------------|

 (w/dist)
|-------------------------------|-------------------------------|
|-------------------------------|-------------------------------|
|--7-------------7--------------|--7-------------7--------------|
|--7-------------8--------------|--7-------------8--------------| x2
|--5-------------5--------------|--5-------------5--------------|
|--5-------------5--------------|--5-------------5--------------|
|--5-------------5--------------|--5-------------5--------------|

-------------------

Guitar/Keyboard harmony solo

 Gtr. 1
|--17b18--17-17--17--------------------|--17b18--17-17--17--------------------|
|--------------------18b20-b20-18--15--|--------------------20b22~~~~~~~~~~~~-|
|--------------------------------------|--------------------------------------|
|--------------------------------------|--------------------------------------|
|--------------------------------------|--------------------------------------|
|--------------------------------------|--------------------------------------|
|--------------------------------------|--------------------------------------|
|
|Gtr. 2
|--------------------------------------|--------------------------------------|
|--18b20--18-18--15--15b16--15-15------|--18b20--18-18--15--15b16~~~~~~~~~~~~-|
|----------------------------------15--|--------------------------------------|
|--------------------------------------|--------------------------------------| x2
|--------------------------------------|--------------------------------------|
|--------------------------------------|--------------------------------------|
|--------------------------------------|--------------------------------------|
|
|Gtr. 2
|--------------------------------------|--------------------------------------|
|--------------------------------------|--------------------------------------|
|--15-----15-14--14--12-----12-10------|--15-----14-14--10--10b12~~~~~~~~~~~~-|
|----------------------------------12--|--------------------------------------|
|--------------------------------------|--------------------------------------|
|--------------------------------------|--------------------------------------|
|--------------------------------------|--------------------------------------|

-------------------

2nd Bridge

|-------------------------------|-------------------------------|
|-------------------------------|-------------------------------|
|--------2---3---------2---3----|--------2---3------------------|
|--0-------------1--------------|--2-------------1~~~~~~~~~~~\\-|
|-------------------------------|-------------------------------|
|-------------------------------|-------------------------------|
|-------------------------------|-------------------------------|

|-------------------------------|-------------------------------|
|-------------------------------|-------------------------------|
|--------2---3---------2---3----|--------2---3------------------|
|--0-------------1--------------|--2-------------3~~~~~~~~~~~\\-|
|-------------------------------|-------------------------------|
|-------------------------------|-------------------------------|
|-------------------------------|-------------------------------|

 Both gtrs.
|-------------------------------|-------------------------------|
|-------------------------------|-------------------------------|
|----7---7---7---7---7---7---7--|----7---7---7---7---7---7---7--|
|-------------------------------|-------------------------------|
|--5---5---5---5---5---5---5----|--5---5---5---5---5---5---5----|
|-------------------------------|-------------------------------|
|-------------------------------|-------------------------------|

|-------------------------------|-------------------------------|
|-------------------------------|-------------------------------|
|----7---7---7---7---7---7---7--|----7---7---7---7---7---7---7--|
|-------------------------------|-------------------------------|
|--5---5---5---5---5---5---5----|--5---5---5---5---5---5---5----|
|-------------------------------|-------------------------------|
|-------------------------------|-------------------------------|

(w/tremolo)
|-------------------------------|-------------------------------|
|-------------------------------|-------------------------------|
|-------------------------------|-------------------------------|
|--------2---3---------2---3----|--------2---3------------------|
|--0-------------1--------------|--2-------------1~~~~~~~~~~~\\-|
|-------------------------------|-------------------------------|
|-------------------------------|-------------------------------|

 Gtr.1 (w/dist)
|-------------------------------|-------------------------------|
|----6---6---6---6---6---6---6--|----6---6---6---6---6---6---6--|
|--7---7---7---7---7---7---7----|--7---7---7---7---7---7---7----|
|-------------------------------|-------------------------------|
|-------------------------------|-------------------------------|
|-------------------------------|-------------------------------|
|-------------------------------|-------------------------------|
|
|gtr. 2
|-------------------------------|-------------------------------|
|-------------------------------|-------------------------------|
|----7---7---7---7---7---7---7--|----7---7---7---7---7---7---7--|
|-------------------------------|-------------------------------|
|--5---5---5---5---5---5---5----|--5---5---5---5---5---5---5----|
|-------------------------------|-------------------------------|
|-------------------------------|-------------------------------|

|-------------------------------|-------------------------------|
|----6---6---6---6---6---6---6--|----6---6---6---6---6---6---6--|
|--7---7---7---7---7---7---7----|--7---7---7---7---7---7---7----|
|-------------------------------|-------------------------------|
|-------------------------------|-------------------------------|
|-------------------------------|-------------------------------|
|-------------------------------|-------------------------------|
|
|-------------------------------|-------------------------------|
|-------------------------------|-------------------------------|
|----7---7---7---7---7---7---7--|----7---7---7---7---7---7---7--|
|-------------------------------|-------------------------------|
|--5---5---5---5---5---5---5----|--5---5---5---5---5---5---5----|
|-------------------------------|-------------------------------|
|-------------------------------|-------------------------------|

(w/tremolo)
|-------------------------------|-------------------------------|
|-------------------------------|-------------------------------|
|-------------------------------|-------------------------------|
|--------2---3---------2---3----|--------2---3------------------|
|--0-------------1--------------|--2-------------1~~~~~~~~~~~\\-|
|-------------------------------|-------------------------------|
|-------------------------------|-------------------------------|

|-------------------------------|-------------------------------|
|-------------------------------|-------------------------------|
|-------------------------------|-------------------------------|
|--------2---3---------2---3----|--------2---3------------------|
|--0-------------1--------------|--2-------------3~~~~~~~~~~~\\-|
|-------------------------------|-------------------------------|
|-------------------------------|-------------------------------|

 (w/dist)
|-------------------------------|
|-------------------------------|
|--7-------------7--------------|
|--7-------------8--------------|
|--5-------------5--------------|
|--5-------------5--------------|
|--5-------------5--------------|

-------------------

Guitar/Keyboard/Vocal harmony solo

 Gtr. 1
|--17b18--17-17--17--------------------|--17b18--17-17--17--------------------|
|--------------------18b20-b20-18--15--|--------------------20b22~~~~~~~~~~~~-|
|--------------------------------------|--------------------------------------|
|--------------------------------------|--------------------------------------|
|--------------------------------------|--------------------------------------|
|--------------------------------------|--------------------------------------|
|--------------------------------------|--------------------------------------|
|
|Gtr. 2
|--------------------------------------|--------------------------------------|
|--18b20--18-18--15--15b16--15-15------|--18b20--18-18--15--15b16~~~~~~~~~~~~-|
|----------------------------------15--|--------------------------------------|
|--------------------------------------|--------------------------------------| x2
|--------------------------------------|--------------------------------------|
|--------------------------------------|--------------------------------------|
|--------------------------------------|--------------------------------------|
|
|Gtr. 2
|--------------------------------------|--------------------------------------|
|--------------------------------------|--------------------------------------|
|--15-----15-14--14--12-----12-10------|--15-----14-14--10--10b12~~~~~~~~~~~~-|
|----------------------------------12--|--------------------------------------|
|--------------------------------------|--------------------------------------|
|--------------------------------------|--------------------------------------|
|--------------------------------------|--------------------------------------|

-------------------

3rd Bridge

|-------------------------------|-------------------------------|
|-------------------------------|-------------------------------|
|--------2---3---------2---3----|--------2---3------------------|
|--0-------------1--------------|--2-------------1~~~~~~~~~~~\\-|
|-------------------------------|-------------------------------|
|-------------------------------|-------------------------------|
|-------------------------------|-------------------------------|

|-------------------------------|-------------------------------|
|-------------------------------|-------------------------------|
|--------2---3---------2---3----|--------2---3------------------|
|--0-------------1--------------|--2-------------3~~~~~~~~~~~\\-|
|-------------------------------|-------------------------------|
|-------------------------------|-------------------------------|
|-------------------------------|-------------------------------|

(w/dist)
|-------------------------------|-------------------------------|
|-------------------------------|-------------------------------|
|--7-------------7--------------|--7-------------7--------------|
|--7-------------8--------------|--7-------------8--------------| x2
|--5-------------5--------------|--5-------------5--------------|
|--5-------------5--------------|--5-------------5--------------|
|--5-------------5--------------|--5-------------5--------------|

|-------------------------------------------------|
|-------------------------------------------------|
|--7--x-x-x--7--x-x-x-x--7--x--x--7--x-x--7--x-x--|
|--7--x-x-x--7--x-x-x-x--8--x--x--8--x-x--8--x-x--| x4
|--5--x-x-x--5--x-x-x-x--5--x--x--5--x-x--5--x-x--|
|--5--x-x-x--5--x-x-x-x--5--x--x--5--x-x--5--x-x--|
|--5--x-x-x--5--x-x-x-x--5--x--x--5--x-x--5--x-x--|

-------------------

Time change to 4/4

Rest for one bar

 Gtr. 1
|----------------------|---------------------|
|----------------------|---------------------|
|----------------------|---------------------|
|--3--------5----------|--3------------------|
|--3--------3----------|--1------------------|
|--1--------3----------|--1------------------|
|-----------3----------|--1------------------|
|
|Gtr. 2
|----------------------|---------------------|
|----------------------|---------------------|
|--10------------------|---------------------|
|--10-------10---------|--8------------------|
|--8--------10---------|--8------------------|
|-----------8----------|--6------------------|
|----------------------|---------------------|

-------------------

Then play the first two riffs as the chorus until the end.

-------------------

Harmony guitar solo over final chorus
 Gtr. 1
|-------------------------------17~~~~~--|----------------------------------------|
|--17h18--17h18~~~-17----17-18-----------|--17h18--17h18~~~-17----17-18-----------|
|---------------------19-----------------|---------------------19--------19~~~~~--|
|----------------------------------------|----------------------------------------|
|----------------------------------------|----------------------------------------|
|----------------------------------------|----------------------------------------|
|----------------------------------------|----------------------------------------|
|
|Gtr. 2
|-------------------------------13~~~~~--|----------------------------------------|
|--13h15--13h15~~~-13----13-15-----------|--13h15--13h15~~~-13----13-15-----------|
|---------------------14-----------------|---------------------14--------10~~~~~--|
|----------------------------------------|----------------------------------------|
|----------------------------------------|----------------------------------------|
|----------------------------------------|----------------------------------------|
|----------------------------------------|----------------------------------------|

-------------------

Tab legend

x = muted note
h/p = hammer on/pull off
/--... = rock pedal toe-down
...--\ = rock pedal toe-up
b = bend string
~~~ = vibrato
(x) = tied note from previous staff

-------------------





Comments


Popular Pain Of Salvation tabs & chords
Fandango Bass Tabs
Healing Now Chords
Imago Chords
Sisters Chords
Sisters 1 Chords
Ashes Tabs
Idiocracy Tabs
Latericius Valete Tabs
Softly She Cries Tabs
Imago Ukulele


Song lyrics



↑ Back to top | Tablatures and chords are parodies/interpretations of the original songs. You may use it for private study, scholarship, research or language learning purposes only
© 2014 AZChords.com Contact us | Privacy policy | DMCA | Add/correct tabs | Request tabs | Top 50 tabs