>
 >
Deus Nova

Deus Nova Guitar Tabs

Pain Of Salvation - Deus Nova chords, tabs, tablatures, lyrics

Guitar lessons | Add/correct | Request | Top 50 tabs Artists:  A B C D E F G H I J K L M N O P Q R S T U V W X Y Z 0-9

Deus Nova Guitar Tabs – Pain Of Salvation

CD, Sheet music, Poster

Do you like Deus Nova? Share with your friends now
Bass TabsTabs
                                  Deus Nova                                     


                                                               Pain of Salvation
Guitar




                             H        H            E  E  E  E  E  E  E  E   
E||-------|-------|-------|---------------------|--------------------------|
B||-------|-------|-------|---------------------|--0--L--L--L--L--L--L--L--|
G||-------|-------|-------|---------------------|--------------------------|
D||-------|-------|-------|---------------------|--------------------------|
A||-------|-------|-------|-----------0/--------|--L--L--L--L--L--L--L--L--|
E||-------|-------|-------|---------------------|--------------------------|
B||-------|-------|-------|---------------------|--------------------------|


  W                    W                    W                 
-------------------|--------------------|--------------------|
-------------------|--------------------|--------------------|
-------------------|--------------------|--------------------|
-------------------|--------------------|--------------------|
-------------------|--------------------|--------------------|
-------------------|--------------------|--------------------|
--5----------------|--10----------------|--10----------------|


  Q    Q    E  E  E   E     Q    Q    E  E  E   E      Q    Q    E  E  E   E   
-------------------------|-------------------------|--------------------------|
-------------------------|-------------------------|--------------------------|
-------------------------|-------------------------|--------------------------|
-------------------------|-------------------------|--------------------------|
-------------------------|-------------------------|--------------------------|
-------------------------|-------------------------|--------------------------|
--5----L----L--5--8--10--|--5----L----L--5--8--10--|--10----L----L--L--8--10--|


   Q    Q    E  E.  S  S  S    E  E  E  E  E  E   E   E   
----------------------------|----------------------------|
----------------------------|----------------------------|
----------------------------|----------------------------|
----------------------------|----------------------------|
----------------------------|----------------------------|
----------------------------|----------------------------|
--10----L----L--L---L--L--L-|--8--8--8--8--8--8--11--13--|


  E  E  E  E  E  E   E   E      E   E   E   E   E   E   E   E   
----------------------------|----------------------------------|
----------------------------|----------------------------------|
----------------------------|----------------------------------|
----------------------------|----------------------------------|
----------------------------|----------------------------------|
----------------------------|----------------------------------|
--8--8--8--8--8--8--11--13--|--13--13--13--13--13--13--11--13--|


   E   E   E   E   E   E   E   E     E  E  E  E  E  E   E   E   
----------------------------------|----------------------------|
----------------------------------|----------------------------|
----------------------------------|----------------------------|
----------------------------------|----------------------------|
----------------------------------|----------------------------|
----------------------------------|----------------------------|
--13--13--13--13--13--13--13--13--|--8--8--8--8--8--8--11--13--|


  E  E  E  E  E  E   E   E      E   E   E   E   E   E   E   E   
----------------------------|----------------------------------|
----------------------------|----------------------------------|
----------------------------|----------------------------------|
----------------------------|----------------------------------|
----------------------------|----------------------------------|
----------------------------|----------------------------------|
--8--8--8--8--8--8--11--13--|--13--13--13--13--13--13--11--13--|


                      <                                         
   E   E   E   E   E  Q.         E  E  E  E  E  S E  S E  Q     
------------------------------|--------------------------------|
------------------------------|--------------------------------|
----------------------0\------|--------------------------------|
------------------------------|--------------------------------|
----------------------0\------|--------------------------------|
------------------------------|--------------------------------|
--13--13--13--13--13----------|--3--1--3--1--3----4----1-------|


                                                              |--3--|   
  E  E  E  E  E  S E  S E  S E  S    E  E  E  E  E  S E  S E  E  E  E   
----------------------------------|------------------------------------|
----------------------------------|------------------------------------|
----------------------------------|------------------------------------|
----------------------------------|------------------------------------|
----------------------------------|------------------------------------|
----------------------------------|------------------------------------|
--3--1--3--1--3----4----3----2----|--3--1--3--1--3----4----1--2--2--2--|


  E  E  E  E  E.  E.  E.  E.  E.  E.  E.     E  E  E  E  E  S E  S E  Q     
------------------------------------------|--------------------------------|
------------------------------------------|--------------------------------|
------------------------------------------|--------------------------------|
------------------------------------------|--------------------------------|
------------------------------------------|--------------------------------|
--------------5---6---3---4---5---6---7---|--------------------------------|
--3--1--3--1--3---4---1---2---3---4---5---|--3--1--3--1--3----4----1-------|


                                                              |--3--|   
  E  E  E  E  E  S E  S E  S E  S    E  E  E  E  E  S E  S E  E  E  E   
----------------------------------|------------------------------------|
----------------------------------|------------------------------------|
----------------------------------|------------------------------------|
----------------------------------|------------------------------------|
----------------------------------|------------------------------------|
----------------------------------|------------------------------------|
--3--1--3--1--3----4----3----2----|--3--1--3--1--3----4----1--2--2--2--|


  E  E  E  E  E.  E.  E.  E.  E.  E.  E.     W                 
------------------------------------------|-------------------|
------------------------------------------|-------------------|
------------------------------------------|-------------------|
------------------------------------------|-------------------|
------------------------------------------|--8----------------|
--------------5---6---3---4---5---6---7---|--8----------------|
--3--1--3--1--3---4---1---2---3---4---5---|--6----------------|


  W                   W                   W                 
-------------------|-------------------|-------------------|
-------------------|-------------------|-------------------|
-------------------|-------------------|-------------------|
-------------------|-------------------|-------------------|
--L----------------|--L----------------|--L----------------|
--L----------------|--L----------------|--L----------------|
--L----------------|--L----------------|--L----------------|


  H.           Q        E  E  E  E  E  S E  S E  Q     
---------------------|--------------------------------|
---------------------|--------------------------------|
---------------------|--------------------------------|
---------------------|--------------------------------|
--L------------8S----|--------------------------------|
--L------------8S----|--------------------------------|
--L------------6S----|--3--1--3--1--3----4----1-------|


                                                              |--3--|   
  E  E  E  E  E  S E  S E  S E  S    E  E  E  E  E  S E  S E  E  E  E   
----------------------------------|------------------------------------|
----------------------------------|------------------------------------|
----------------------------------|------------------------------------|
----------------------------------|------------------------------------|
----------------------------------|------------------------------------|
----------------------------------|------------------------------------|
--3--1--3--1--3----4----3----2----|--3--1--3--1--3----4----1--2--2--2--|


  E  E  E  E  E.  E.  E.  E.  E.  E.  E.     E  E  E  E  E  S E  S E  Q     
------------------------------------------|--------------------------------|
------------------------------------------|--------------------------------|
------------------------------------------|--------------------------------|
------------------------------------------|--------------------------------|
------------------------------------------|--------------------------------|
--------------5---6---3---4---5---6---7---|--------------------------------|
--3--1--3--1--3---4---1---2---3---4---5---|--3--1--3--1--3----4----1-------|


                                                              |--3--|   
  E  E  E  E  E  S E  S E  S E  S    E  E  E  E  E  S E  S E  E  E  E   
----------------------------------|------------------------------------|
----------------------------------|------------------------------------|
----------------------------------|------------------------------------|
----------------------------------|------------------------------------|
----------------------------------|------------------------------------|
----------------------------------|------------------------------------|
--3--1--3--1--3----4----3----2----|--3--1--3--1--3----4----1--2--2--2--|


  E  E  E  E  E.  E.  E.  E.  E.  E.  E.     E  S S E  E  S S E  E  S S  
------------------------------------------|-----4-3-1-----3-4-8-----4-3-|
------------------------------------------|-----------------------------|
------------------------------------------|-----------------------------|
------------------------------------------|-----------------------------|
------------------------------------------|-----------------------------|
--------------5---6---3---4---5---6---7---|-----------------------------|
--3--1--3--1--3---4---1---2---3---4---5---|-----------------------------|


  E  E  S S E  E  S S E  E     S S E  E  S S E  E  S S  E   
--1-----6-4-3-----6-4-3-----|--4-6-9-----8-6-4-----6-8-11--|
----------------------------|------------------------------|
----------------------------|------------------------------|
----------------------------|------------------------------|
----------------------------|------------------------------|
----------------------------|------------------------------|
----------------------------|------------------------------|


                                                     |--3--|   
  E  S S E  E  S S E  E  S S    E  E  S S  E  E  S S E  E  E   
-----8-6-4-----9-8-6-----9-8-|--6-----8-9-13-----9-8-7--6--4--|
-----------------------------|--------------------------------|
-----------------------------|--------------------------------|
-----------------------------|--------------------------------|
-----------------------------|--------------------------------|
-----------------------------|--------------------------------|
-----------------------------|--------------------------------|


  S  W                 E.       Q.      Q.     H          
---------------------------|-----------------------------|
---------------------------|--/11------10----------------|
--5S-7~----------------L---|-------------------5~--------|
---------------------------|-----------------------------|
---------------------------|-----------------------------|
---------------------------|-----------------------------|
---------------------------|-----------------------------|


  Q    H         H         
--------------------------|
--------------------------|
--L----5S--------L--------|
-------5---------L--------|
--------------------------|
--------------------------|
--------------------------|


  Sorry, just play something on Cminor as fast as                     you can   
  S                                               S S S S S S S S S S S       S 
--------------------------------------------------------------------------------
--------------------------------------------------------------------------------
------------------------------------------------------------------3-5-7-------8-
------------------------------------------------------------3-5-6---------------
------------------------------------------------------3-5-6---------------------
--3-----------------------------------------------5-7---------------------------
--------------------------------------------------------------------------------


  S S  S  S  S  S  S  S  S  S  S  S  S  S  S  S  S S S S  
--6-8-10-11-13-15-16-15-13-15-16-15-16-15-13-11-10-8-6---|
-------------------------------------------------------9-|
---------------------------------------------------------|
---------------------------------------------------------|
---------------------------------------------------------|
---------------------------------------------------------|
---------------------------------------------------------|


  S S S S S S S S S S S  S  S  S  S  S  S  S  S  S  S  S  S  S  
--------------------6-8-10-11-13-15-16-15-16-15-16-15-16-15-13-|
--8-6---------6-8-9--------------------------------------------|
------8-7-5-3--------------------------------------------------|
---------------------------------------------------------------|
---------------------------------------------------------------|
---------------------------------------------------------------|
---------------------------------------------------------------|


  S  W                 E.       Q.      Q.     H          
---------------------------|-----------------------------|
---------------------------|--/11------10----------------|
--5S-7~----------------L---|-------------------5~--------|
---------------------------|-----------------------------|
---------------------------|-----------------------------|
---------------------------|-----------------------------|
---------------------------|-----------------------------|


                             Sorry again...                                
  Q    H         H           S              S S S S S S S S S S S S S S S  
--------------------------|-----------------------------------------------|
--------------------------|-----------------------------------------6-8-9-|
--L----5S--------L--------|---------------------------------3-5-7-8-------|
-------5---------L--------|---------------------------3-5-6---------------|
--------------------------|---------------------3-5-6---------------------|
--------------------------|--3--------------5-7---------------------------|
--------------------------|-----------------------------------------------|


  S S  S  S  S  S  S  S  S  S  S  S  S  S  S  S  S S S S  
--6-8-10-11-13-15-16-15-13-15-16-15-16-15-13-11-10-8-6---|
-------------------------------------------------------9-|
---------------------------------------------------------|
---------------------------------------------------------|
---------------------------------------------------------|
---------------------------------------------------------|
---------------------------------------------------------|


  S S S S S S S S S S S  S  S  S  S  S  S  S  S  S  S E.          
--------------------6-8-10-11-13-15-16-15-16-15-13-10-6\---|----||
--8-6---------6-8-9----------------------------------------|----||
------8-7-5-3----------------------------------------------|----||
-----------------------------------------------------------|----||
-----------------------------------------------------------|----||
-----------------------------------------------------------|----||
-----------------------------------------------------------|----||




Duration Legend
---------------
W - whole
H - half
Q - quarter
E - 8th
S - 16th
T - 32nd
X - 64th
. - note dotted
|-n-|  - n-tuplets


Tablature Legend
----------------
L - tied note
x - dead note
g - grace note
(n) - ghost note
> - accentuded note
NH - natural harmonic
AH - artificial harmonic
TH - tapped harmonic
SH - semi harmonic
PH - pitch harmonic
h - hammer on
p - pull off
b - bend
br - bendRelease
pb - preBend
pbr - preBendRelease
brb - bendReleaseBend
\n/ - tremolo bar dip
\n - tremolo bar dive
-/n - tremolo bar Release up
/n\ - tremolo bar inverted dip
/n - tremolo bar return
-\n - tremolo bar Release down
S - shift slide
s - legato slide
/ -  slide into from below or out of upwards
\ -  slide into from above or out of downwards
~ - vibrato
W - wide vibrato
tr - trill
TP - tremolo picking
T - tapping
S - slap
P - pop
< - fade in
^ - brush up
v - brush down





Comments


Popular Pain Of Salvation tabs & chords
Dedication Bass Tabs
Fandango Bass Tabs
Kingdom Of Loss Chords
Beyond The Pale Tabs
Idiocracy Tabs
Linoleum Tabs
Second Love Tabs
Softly She Cries Tabs
Undertow Tabs
1979 Ukulele


Song lyrics



↑ Back to top | Tablatures and chords are parodies/interpretations of the original songs. You may use it for private study, scholarship, research or language learning purposes only
© 2014 AZChords.com Contact us | Privacy policy | DMCA | Add/correct tabs | Request tabs | Top 50 tabs